U2 - Stuck In A Moment Chords & Tabs

 

Stuck In A Moment Chords & Tabs

U2 Chords & Tabs

Version: 1 Type: Bass Tab 0 ratings
1 star 2 stars 3 stars 4 stars 5 stars
comments

Stuck In A Moment Bass Tab

U2 - Stuck In a Moment
Harry Jones (betterof@yahoo.com)

Hi it's me again only this time i have worked out the whole song for
u U2 fans out there...

The notes u should use R once U have found
that out then U should be on track
Hear it is finally.....Good luck..

Intro.

G---------------------------------------------
D---------------------------------------------
A-----0---2-4-0-------------------------------
E-0-4---4-------0-----------------------------


Verse.

G-----------------------------------------------------
D-----------------------------------------------------
A---0---2--4-0-----0---2--4--0---4-0---0-4-0-4--2-----
E-0---4--------0-----4---------0-----2----------------

Chorus.
[ Tab from: http://www.guitartabs.cc/tabs/u/u2/stuck_in_a_moment_btab.html ]
G-----------------------------------------
D-----------------------------------------
A-----0---2-4-0-----0-----4---------------
E-0-4---0-------0-4---4-4---0-0-0---------

Then it goes back to the verse and back again to the chours
then.....

Middle.

G-------------------------------------------------------------------------------
D-------------------------------------------------------------------------------
A---0---2-0-5-2-----0--2-4-0-----0-----4-0-----0---2-4-0-----0-----4-0----------
E-2---0---------0-4--4-------0-4---4-4-----0-4---4-------0-4---4-4-----0--------

Then at the end it repeats a little bit of the end of the middle again.
I'am almost correct about 99.68%
U really need to listen to the record to get the exact timing..
have fun with it.
Comments