U2 - Stay Chords & Tabs

 

Stay Chords & Tabs

U2 Chords & Tabs

Version: 1 Type: Bass Tab 0 ratings
1 star 2 stars 3 stars 4 stars 5 stars
comments

Stay Bass Tab

                     U@ - STAY (FARAWAY, SO CLOSE !)


Tune down 1/2 step


  Faraway, ...

g|-------------------------------------------------------|
d|-----------------4---4---------------------------------|
a|--7---7--------4------------4-7-------------4-7---7----|
e|-----------4-7------------7-----5---5---5-7------------|


  the following passage is the one played during the verses
  (repeat it until : " If I could stay ...")

g|-----------------------------------------------------------|
d|-----------------------4---4-------------------------------|
a|------4-7---7--------4------------4-7-------------4-7---7--|
e|--4-7------------4-7------------7-----5---5---5-7----------|



  If I could stay ...
[ Tab from: http://www.guitartabs.cc/tabs/u/u2/stay_btab.html ]
g|-------------------------------------------------------------------------|
d|-------------------------------------------------------------------------|
a|----4-7-------------2-------------2---------------------------2----------|
e|--7-----2---2---2-4---2---2---2-4---0---0---0-2-4-2---2---2-4---2---2----|


g|-------------------------------------------------------------------------|
d|-------------------------------------------------------------------------|
a|------2-------------2-------------2-------------4-------------4----------|
e|--2-4---2---2---2-4---2---2---2-4---4---4---4-5---5---5---5-7---7---7----|


g|-------------------------------------------------------------------------|
d|-------------------------------------------------------------------------|
a|----------------------2-0---0---0-2-4------------------------------------|
e|--7-7-7--/2---2---2-4-----------------0---0---0-2-4---0---0--------------|


g|-------------------------------------------------------------------------|
d|----------------------4---4----------------------------------------------|
a|------4-7---7-------4-----------4-7-------------4-7---7------------------|
e|--5-7-----------4-7-----------7-----5---5---5-7--------------------------|



tabbed by Thierry VAUDELIN
vaudelin@sphex.eseo.fr
Comments