U2 - Running To Stand Still Chords & Tabs

 

Running To Stand Still Chords & Tabs

U2 Chords & Tabs

Version: 1 Type: Bass Tab 0 ratings
1 star 2 stars 3 stars 4 stars 5 stars
comments

Running To Stand Still Bass Tab

   
Running to stand still.
 
 It comes in on the second verse on "you gotta cry with-out weeping..."
 
G
D--------/-----------/---------/--------/-5-------/-5-------/
A-5------/-5---------/---------/--------/---------/---------/
E--------/-----------/-3-------/-3------/---------/---------/
 
 
D-------/---------/------7/------------/-5-----------------/------------------/----------/
A-------/---------/-------/-----2-3-4--/-----5-------------/-5---3--5-----3--5/-5-3-5-5-5/
E-5-5-5-/-3-3-3-3-/-5-5-5-/-3---33-----/---------3---3--3-3/--------------5---/----------/
 
 
D---------/-5--------------/
A---------/----5-----------/
E-3---3--3/-------3--3-3-3-/
 
 
    Then it should go (if you got the timing right, it's not that easy...)
   "she walks through the streets..."

D-------------------/-----------------/--------/--------/-----------------/
A-5-5--3--5-----3--5/-5--5-3-5---3-5-5/--------/--------/-5--5-3-5----3--5/
E---------------5---/-----------------/-3-33--0/-3--3--3/-----------5-----/
 
D---------------/-------------/--------5-/---------------/----------------/
A-5-5-3-5--3-5-5/-------------/----------/-5-5-3-5--3-5-5/-5-5-3-5----3--5/
E---------------/-3-3---3----0/--3--3----/---------------/-------------5--/
                        ("She will...")
D-5--5-------------/-5--------/--------/------3--5-5/------/-----/---/---/-5-/-5-/
A-------5----------/------5---/--------/------------/------/-----/-5-/-5-/---/---/
E----------3--0-3-3/---------3/-5----5-/-3--3-------/-5---5/-3--3/---/---/---/---/



[ Tab from: http://www.guitartabs.cc/tabs/u/u2/running_to_stand_still_btab.html ]
Comments