U2 - Red Hill Mining Town Chords & Tabs

 

Red Hill Mining Town Chords & Tabs

U2 Chords & Tabs

Version: 1 Type: Tab 0 ratings
1 star 2 stars 3 stars 4 stars 5 stars
comments

Red Hill Mining Town Tab

"Red Hill Mining Town" by U2
This is an awesome song, but i didn't see a guitar tab for it so i thought i'd make one.

[ Tab from: http://www.guitartabs.cc/tabs/u/u2/red_hill_mining_town_tab.html ]
Guitar 1
E-----------------------------------------------------------------------|
B------12-----12-----12-----12-----12-/-5----5----5----5----5-----------|
G----12-----12-----12-----12-----12--/-5----5----5----5----5------------|
D--12-----12-----12-----12-----12---/-5----5----5----5----5-------------|
A-----------------------------------------------------------------------|
E-----------------------------------------------------------------------|

Guitar 2
E-----------------------------------------------------------------------|
B-----------------------------------------------------------------------|
G-----------------------------------------------------------------------|
D-----------------------------------------------------------------------|
A-----------------------------------------------------------------------|
E---3-----------x/8--------3----------x/8-------------------------------|
Comments