U2 - Red Hill Mining Town Chords & Tabs

 

Red Hill Mining Town Chords & Tabs

U2 Chords & Tabs

Version: 2 Type: Bass Tab 0 ratings
1 star 2 stars 3 stars 4 stars 5 stars
comments

Red Hill Mining Town Bass Tab

   
-------------------------------------------------------------------------------
			     Red Hill Mining Town - U2
-------------------------------------------------------------------------------




Tabbed By : CandyForNixon
e-mail: CandyForNixon@yahoo.com

Tuning: standard

Intro/Verse

G|---------------------------------------------------------------------------|
D|---------------------------------------------------------------------------|
A|---------------------------------------------------------------------------|
E|13/3--3-3----3-3----3-3-3-3-3-3-3-3----------------------------------------|

G|---------------------------------------------------------------------------|
D|---------------------------------------------------------------------------|
A|3--3-3-----3-3----3-3-3-3-3-3-3-3------------------------------------------|
E|---------------------------------------------------------------------------|




Bridge

G|---------------------------------------------------------------------------|
D|---------------------------------------------------------------------------|
A|5--5-5----5-5----5-5-5-5-5-5-5-5-------------------------------------------|
E|---------------------------------------------------------------------------|

G|---------------------------------------------------------------------------|
D|---------------------------------------------------------------------------|
A|---------------------------------------------------------------------------|
E|5-5-5-r----5-5-5-r----5-5-5--r----5-5-5-r----------------------------------|
[ Tab from: http://www.guitartabs.cc/tabs/u/u2/red_hill_mining_town_btab_ver_2.html ]
G|---------------------------------------------------------------------------|
D|---------------------------------------------------------------------------|
A|---------------------------------------------------------------------------|
E|1-1-1-r----1-1-1-r----1-1-1-r----1-1-1-r-----------------------------------|

G|---------------------------------------------------------------------------|
D|---------------------------------------------------------------------------|
A|---------------------------------------------------------------------------|
E|1-1-1-r----1-1-1-r----1-1-1-r----1-1-1-r-----------------------------------|


Chorus

G|---------------------------------------------------------------------------|
D|---------------------------------------------------------------------------|
A|---------------------------------------------------------------------------|
E|3--3-3--3-3-3-r----3-3-3-3-------------------------------------------------|

G|---------------------------------------------------------------------------|
D|---------------------------------------------------------------------------|
A|5--5-5--5-5----5-5-5-5-5-5-5-5---------------------------------------------|
E|---------------------------------------------------------------------------|

G|---------------------------------------------------------------------------|
D|---------------------------------------------------------------------------|
A|---------------------------------------------------------------------------|
E|1--1-1----1-1-1-1-1-1-1----------------------------------------------------|

G|---------------------------------------------------------------------------|
D|---------------------------------------------------------------------------|
A|3r--3-3----3r--3-3----3r--3-3----3r--3-3-----------------------------------|
E|---------------------------------------------------------------------------|


Intro X4
Bridge
Chorus X2
Verse X4
Bridge
Chorus X2
Verse X4
Bridge
Chorus X5


| r  let note ring
| /  slide up
| \  slide down
| h  hammer-on
| p  pull-off
| ~  vibrato
| +  harmonic
| x  Mute note
Comments