U2 - Pride Live Chords & Tabs

 

Pride Live Chords & Tabs

U2 Chords & Tabs

Version: 1 Type: Tab 0 ratings
1 star 2 stars 3 stars 4 stars 5 stars
comments

Pride Live Tab

tabbed by:zep123
email:zepman74@yahoo.com
song:Pride Live (rattle and hum dvd)
artist:U2

USE SLIGHT DELAY FOR WHOLE SONG

INTRO-

play all strings dead at this rhythm on the 11th fret

|x--x-x-x--x--x-x-x--x--x-x-x--x-x-x--x--x-x-x--x--x-x-|

E--11-------9VVV--|E--11-------9VVV--|
B--X--------9VVV--|B--11-------9VVV--|
G--X----9---------|G--X----9---------|
D--X--------------|D--X--------------|
A--X--------------|A--X--------------|
E--X--------------|E--X--------------|



main riff

edit:intro is upside down
E--------------------------------------------------------|
B--8--8--8--8--8--8--8--8--8--8--8--8--8--8--8--8--8--8--|
G--10-10-10-10-10-10-8--8--8--8--10-8--10-8--10-8--10-8--|
D--11-11-11-11-11-11-11-11-11-11-11-11-11-11-11-11-11-11-| 
A--------------------------------------------------------|
E--------------------------------------------------------|


E--------------------------------------------------------|
B--8--8--8--8--8--8--8--8--8--8--8--8--8--8--8--8--8--8--|
G--10-10-10-10-10-10-8--8--8--8--10-8--10-8--10-8--10-8--|
D--11-11-11-11-11-11-11-11-11-11-11-11-11-11-11-11-11-11-| 
A--------------------------------------------------------|
E--------------------------------------------------------|


E--------------------------------------------------------|
B--9--9--9--9--9--9--8--8--8--8--9--8--9--8--9--8--9--8--|
G--8--8--8--8--8--8--8--8--8--8--8--8--8--8--8--8--8--8--|
D--8--8--8--8--8--8--8--8--8--8--8--8--8--8--8--8--8--8--|
A--------------------------------------------------------|
E--------------------------------------------------------|

E--------------------------------------------------------|
B--9--9--9--9--9--9--9--9--9--9--9--9--9--9--9--9--9--9--|
G--10-10-10-10-10-10-8--8--8--8--10-8--10-8--10-8--10-8--|
D--8--8--8--8--8--8--8--8--8--8--8--8--8--8--8--8--8--8--|
A--------------------------------------------------------|
E--------------------------------------------------------|

E--------------------------------------------------------|
B--8--8--8--8--8--8--8--8--8--8--8--8--8--8--8--8--8--8--|
G--10-10-10-10-10-10-8--8--8--8--10-8--10-8--10-8--10-8--|
D--11-11-11-11-11-11-11-11-11-11-11-11-11-11-11-11-11-11-| 
A--------------------------------------------------------|
E--------------------------------------------------------|


E--------------------------------------------------------|
B--8--8--8--8--8--8--8--8--8--8--8--8--8--8--8--8--8--8--|
G--10-10-10-10-10-10-8--8--8--8--10-8--10-8--10-8--10-8--|
D--11-11-11-11-11-11-11-11-11-11-11-11-11-11-11-11-11-11-| 
A--------------------------------------------------------|
E--------------------------------------------------------|

E--------------------------------------------------------|
B--9--9--9--9--9--9--8--8--8--8--9--8--9--8--9--8--9--8--|
G--8--8--8--8--8--8--8--8--8--8--8--8--8--8--8--8--8--8--|
D--8--8--8--8--8--8--8--8--8--8--8--8--8--8--8--8--8--8--|
A--------------------------------------------------------|
E--------------------------------------------------------|

E--------------------------------------------------------|
B--9--9--9--9--9--9--9--9--9--9--9--9--9--9--9--9--9--9--|
G--10-10-10-10-10-10-8--8--8--8--10-8--10-8--10-8--10-8--|
D--8--8--8--8--8--8--8--8--8--8--8--8--8--8--8--8--8--9--|
A--------------------------------------------------------|
E--------------------------------------------------------|

VERSE 1

   ONE MAN COME 
E--------------------------------------------------------|
B--8--8--8--8--8--8--8--8--8--8--8--8--8--8--8--8--8--8--|
G--10-10-10-10-10-10-8--8--8--8--10-8--10-8--10-8--10-8--|
D--11-11-11-11-11-11-11-11-11-11-11-11-11-11-11-11-11-11-| 
A--------------------------------------------------------|
E--------------------------------------------------------|

   INT THE NAME OF LOVE
E--------------------------------------------------------|
B--8--8--8--8--8--8--8--8--8--8--8--8--8--8--8--8--8--8--|
G--10-10-10-10-10-10-8--8--8--8--10-8--10-8--10-8--10-8--|
D--11-11-11-11-11-11-11-11-11-11-11-11-11-11-11-11-11-11-| 
A--------------------------------------------------------|
E--------------------------------------------------------|

   ONE MAN COME
E--------------------------------------------------------|
B--9--9--9--9--9--9--8--8--8--8--9--8--9--8--9--8--9--8--|
G--8--8--8--8--8--8--8--8--8--8--8--8--8--8--8--8--8--8--|
D--8--8--8--8--8--8--8--8--8--8--8--8--8--8--8--8--8--8--|
A--------------------------------------------------------|
E--------------------------------------------------------|
   AND GO   
E--------------------------------------------------------|
B--9--9--9--9--9--9--9--9--9--9--9--9--9--9--9--9--9--9--|
G--10-10-10-10-10-10-8--8--8--8--10-8--10-8--10-8--10-8--|
D--8--8--8--8--8--8--8--8--8--8--8--8--8--8--8--8--8--8--|
A--------------------------------------------------------|
E--------------------------------------------------------|
   ONE MAN COME
E--------------------------------------------------------|
B--8--8--8--8--8--8--8--8--8--8--8--8--8--8--8--8--8--8--|
G--10-10-10-10-10-10-8--8--8--8--10-8--10-8--10-8--10-8--|
D--11-11-11-11-11-11-11-11-11-11-11-11-11-11-11-11-11-11-| 
A--------------------------------------------------------|
E--------------------------------------------------------|
   HE TO JUSTIFY
E--------------------------------------------------------|
B--8--8--8--8--8--8--8--8--8--8--8--8--8--8--8--8--8--8--|
G--10-10-10-10-10-10-8--8--8--8--10-8--10-8--10-8--10-8--|
D--11-11-11-11-11-11-11-11-11-11-11-11-11-11-11-11-11-11-| 
A--------------------------------------------------------|
E--------------------------------------------------------|
   ONE MAN TO
E--------------------------------------------------------|
B--9--9--9--9--9--9--8--8--8--8--9--8--9--8--9--8--9--8--|                  
G--8--8--8--8--8--8--8--8--8--8--8--8--8--8--8--8--8--8--|
D--8--8--8--8--8--8--8--8--8--8--8--8--8--8--8--8--8--8--|
A--------------------------------------------------------|
E--------------------------------------------------------|
   OVER THROW  
E--------------------------------------------------------|
B--9--9--9--9--9--9--9--9--9--9--9--9--9--9--9--9--9--9--|
G--10-10-10-10-10-10-8--8--8--8--10-8--10-8--10-8--10-8--|
D--8--8--8--8--8--8--8--8--8--8--8--8--8--8--8--8--8--8--|
A--------------------------------------------------------|
E--------------------------------------------------------|

CHORUS

[ Tab from: http://www.guitartabs.cc/tabs/u/u2/pride_live_tab.html ]
   IN THE NAME
E--------------------------------------------------------|
B--8--8--8--8--8--8--8--8--8--8--8--8--8--8--8--8--8--8--|
G--10-10-10-10-10-10-8--8--8--8--10-8--10-8--10-8--10-8--|
D--11-11-11-11-11-11-11-11-11-11-11-11-11-11-11-11-11-11-| 
A--------------------------------------------------------|
E--------------------------------------------------------|

   OF LOVE
E--------------------------------------------------------|
B--8--8--8--8--8--8--8--8--8--8--8--8--8--8--8--8--8--8--|
G--10-10-10-10-10-10-8--8--8--8--10-8--10-8--10-8--10-8--|
D--11-11-11-11-11-11-11-11-11-11-11-11-11-11-11-11-11-11-| 
A--------------------------------------------------------|
E--------------------------------------------------------|

   WHAT MORE
E--------------------------------------------------------|
B--9--9--9--9--9--9--8--8--8--8--9--8--9--8--9--8--9--8--|
G--8--8--8--8--8--8--8--8--8--8--8--8--8--8--8--8--8--8--|
D--8--8--8--8--8--8--8--8--8--8--8--8--8--8--8--8--8--8--|
A--------------------------------------------------------|
E--------------------------------------------------------|
   IN THE NAME OF LOVE
E--------------------------------------------------------|
B--9--9--9--9--9--9--9--9--9--9--9--9--9--9--9--9--9--9--|
G--10-10-10-10-10-10-8--8--8--8--10-8--10-8--10-8--10-8--|
D--8--8--8--8--8--8--8--8--8--8--8--8--8--8--8--8--8--8--|
A--------------------------------------------------------|
E--------------------------------------------------------|
   IN THE NAME 
E--------------------------------------------------------|
B--8--8--8--8--8--8--8--8--8--8--8--8--8--8--8--8--8--8--|
G--10-10-10-10-10-10-8--8--8--8--10-8--10-8--10-8--10-8--|
D--11-11-11-11-11-11-11-11-11-11-11-11-11-11-11-11-11-11-| 
A--------------------------------------------------------|
E--------------------------------------------------------|

   OF LOVE
E--------------------------------------------------------|
B--8--8--8--8--8--8--8--8--8--8--8--8--8--8--8--8--8--8--|
G--10-10-10-10-10-10-8--8--8--8--10-8--10-8--10-8--10-8--|
D--11-11-11-11-11-11-11-11-11-11-11-11-11-11-11-11-11-11-| 
A--------------------------------------------------------|
E--------------------------------------------------------|
   WHAT MORE
E--------------------------------------------------------|
B--9--9--9--9--9--9--8--8--8--8--9--8--9--8--9--8--9--8--|
G--8--8--8--8--8--8--8--8--8--8--8--8--8--8--8--8--8--8--|
D--8--8--8--8--8--8--8--8--8--8--8--8--8--8--8--8--8--8--|
A--------------------------------------------------------|
E--------------------------------------------------------|
   IN THE NAME OF LOVE
E--------------------------------------------------------|
B--9--9--9--9--9--9--9--9--9--9--9--9--9--9--9--9--9--9--|
G--10-10-10-10-10-10-8--8--8--8--10-8--10-8--10-8--10-8--|
D--8--8--8--8--8--8--8--8--8--8--8--8--8--8--8--8--8--9--|
A--------------------------------------------------------|
E--------------------------------------------------------|


VERSE 2
   ONE MAN CAUGHT ON A BARBED WIRE FENCE
E----------------------|
B----------------------|
G----------4-----------|
D-------7-----7--------|
A-----8----------8-----|
E--6-------------------|

ONE MAN HE RESIST
E--------------------|
B--------------------|
G--------------------|
D-------7--7---------|
A----6--------6------|
E--4-------------4---|

ONE MAN WASHED UP ON AN EMPTY BEACH
E----------------------|
B----------------------|
G----------4-----------|
D-------7-----7--------|
A-----8----------8-----|
E--6----------------6--|

ONE MAN BETRAYED WITH A KISS
E--------------------|
B--------------------|
G--------------------|
D-------7--7---------|
A----6--------6------|
E--4-------------4---|

CHORUS
SOLO

E--10-12-13--10-12-13--10-12-13-12----------|
B-----------------------------------12--12--|
G-------------------------------------------|
D-------------------------------------------|
A-------------------------------------------|
E-------------------------------------------|

E--10-12-13--10-12-13--10-12-13-12----------|
B-----------------------------------12--12--|
G-------------------------------------------|
D-------------------------------------------|
A-------------------------------------------|
E-------------------------------------------|

E--10-12-13--10-12-13--10-12-13-12----------|
B-----------------------------------12--12--|
G-------------------------------------------|
D-------------------------------------------|
A-------------------------------------------|
E-------------------------------------------|

E--10-12-13--10-12-13--10-12-13-12----------|
B-----------------------------------12--12--|
G-------------------------------------------|
D-------------------------------------------|
A-------------------------------------------|
E-------------------------------------------|

E--10-12-13--10-12-13--10-12-13-12----------|
B-----------------------------------12--12--|
G-------------------------------------------|
D-------------------------------------------|
A-------------------------------------------|
E-------------------------------------------|

E--10-12-13--10-12-13--10-12-13-12----------|
B-----------------------------------12--12--|
G-------------------------------------------|
D-------------------------------------------|
A-------------------------------------------|
E-------------------------------------------|

E--10-12-13--10-12-13--10-12-13-12----------|
B-----------------------------------12--12--|
G-------------------------------------------|
D-------------------------------------------|
A-------------------------------------------|
E-------------------------------------------|

E--10-12-13--10-12-13--10-12-13-12----------|
B-----------------------------------12--12--|
G-------------------------------------------|
D-------------------------------------------|
A-------------------------------------------|
E-------------------------------------------|

VERSE 3

   EARLY MORNING, APRIL 4
E----------------------|
B----------------------|
G----------4-----------|
D-------7-----7--------|
A-----8----------8-----|
E--6-------------------|

SHOT RINGS OUT IN THE MEMPHIS SKY
E--------------------|
B--------------------|
G--------------------|
D-------7--7---------|
A----6--------6------|
E--4-------------4---|

FREE AT LAST, YEAH THEY TOOK YOUR LIFE
E----------------------|
B----------------------|
G----------4-----------|
D-------7-----7--------|
A-----8----------8-----|
E--6----------------6--|

BUT THEY COULD NOT TAKE YOUR PRIDE
E--------------------|
B--------------------|
G--------------------|
D-------7--7---------|
A----6--------6------|
E--4-------------4---|

REPEAT CHORUS TWICE AND MAIN RIFF

i'll send in a corrected version later
Comments