U2 - Please Live Chords & Tabs

 

Please Live Chords & Tabs

U2 Chords & Tabs

Version: 1 Type: Tab 0 ratings
1 star 2 stars 3 stars 4 stars 5 stars
comments

Please Live Tab

Please (live)
Tabbed by John Couillard
Tune down 1/2 a step
Capo on 2nd fret

INTRO/VERSE:little distortion
E---------------------------------------------|
B---------------------------------------------|
G-7---7-----7-7---7-----7-7---7-----7---7---7-|
D-7h9-9p7h9-7-7h9-9p7h9-7-7h9-9p7h9-7h9-7---7-|
A-----------------------------------------9---|
E---------------------------------------------|

NEXT PART:(little delay .compression,distortion)
E--------------------------------| play the open
B-----------7--------------7-----| a string just in
G---4--6~/7----4-6~-4~--4--------| the beginning of
D--------------------------------| the riff.(firsttime)
A-0------------------------------|
E--------------------------------|

ECHO PART:
E-----------------------------------------------|
B-----------------------------------------------|
G-7---7---7---7---7---7-6---6---6---6---6---6---|
D---9---9---9---9---9-----9---9---9---9---9-----|
A-----------------------------------------------|
E-----------------------------------------------|

E-----------------------------------------------|
B-----------------------------------------------|
G-9---9---9---9---9---9-7---7---7---7---7---7---|
D---9---9---9---9---9-----9---9---9---9---9-----|
A-----------------------------------------------|
E-----------------------------------------------|

WAH/ECHO PART:
E-------------------------------------|
B-------------------------------------|
G-------------------------------------|
D-xxx---xx-9-7-xxx-----7---7---7-7h9--|
A-xxx---xx-----xxx-7-9---9---9--------|
E-xxx-7-xx-----xxx--------------------|
[ Tab from: http://www.guitartabs.cc/tabs/u/u2/please_live_tab.html ]
PART BEFORE SOLO:
E-----------------------------------------|
B-----------7---------7---------7-5-5/7-7-|
G---4--6~/7---4--6~/7---4--6~/7-----------|
D-----------------------------------------|
A-0---------------------------------------|
E-----------------------------------------|

SOLO:ECHO, distortion...slide from the
7th fret up the neck from the last part
E-/----10----10----------9-----9--------|
B-/--12----12----12----12----12----12---|
G-/11----11----11----11----11----11-----|
D---------------------------------------|
A---------------------------------------|
E---------------------------------------|

E-----12----12------10------10--10------|
B---12----12----12----12--12--12--12----|
G-11----11----11--------11----------11--|
D---------------------------------------|
A---------------------------------------|
E---------------------------------------| i think 2x

then

E------------------------------------|
B-15-15h17-17(b)17(b)-15-17-15-15----|
G---------------------------------16-| 4x i think
D------------------------------------| sometimes he
A------------------------------------| plays only twice
E------------------------------------|

E----17----17----17----17----17--|
B-15----15----15----15----15-----|
G--------------------------------|
D--------------------------------|
A--------------------------------|
E--------------------------------|

E----19----19----19----19----19--|
B-17----17----17----17----17-----|
G--------------------------------|
D--------------------------------|
A--------------------------------|
E--------------------------------|

E----21----21----21----21-212121-|
B-19----19----19----19----191919-|
G--------------------------------|
D--------------------------------|
A--------------------------------|
E--------------------------------|

then slide down to play first part of SOLO

then end quietly with:

B-----------7-------------7------------7-5-5/7-7-|
G-4---4-6-7-----4---4-6-7----4---4-6-7-----------|

supadad915@yahoo.com
Comments