U2 - Party Girl Chords & Tabs

 

Party Girl Chords & Tabs

U2 Chords & Tabs

Version: 2 Type: Tab 0 ratings
1 star 2 stars 3 stars 4 stars 5 stars
comments

Party Girl Tab

   
Party Girl
Tabbed by: John Couillard
Tune down 1/2 a step

INTRO/VERSE: Acoustic
  Bm                            Em
e-0-0-x-x-0-0-x-x-x-0-0-0-0-0-x-0-0-0-0-0-x-x-|
b-3-3-x-x-3-3-x-x-x-3-3-3-3-3-x-0-0-0-0-0-x-x-|
g-4-4-x-x-4-4-x-x-x-4-4-4-4-4-x-0-0-0-0-0-x-x-|
d-4-4-x-x-4-4-x-x-x-4-4-4-4-4-x-2-2-2-2-2-x-x-|
a-2-2-x-x-2-2-x-x-x-2-2-2-2-2-x-2-2-2-2-2-x-x-|
e---------------------------------------------|

  a
e-0-0-x-0-0-|
b-2-2-x-2-2-|
g-2-2-x-2-2-|
d-2-2-x-2-2-|
a-0-0-x-0-0-|
e-----------|
[ Tab from: http://www.guitartabs.cc/tabs/u/u2/party_girl_tab_ver_2.html ]
SOLO:( I add delay :o)
   (harmonics)
e-12-12----------12~-14-12-10-9h10-7-9-10/12-10-|
b------12-12-12---------------------------------|
g-----------------------------------------------|
d-----------------------------------------------|
a-----------------------------------------------|
e-----------------------------------------------|

e-9-7-9--10h12-10-9-7-9-7-5-7---12-12-12-12-12~~-|
b------------------------------------------------|
g------------------------------------------------|
d------------------------------------------------|
a------------------------------------------------|
e------------------------------------------------|

e-0-2-3-2-0---0------------|
b-----------3---2----- <---|this three times
g-----------------2--4-----|    i believe
d--------------------------|
a--------------------------|
e--------------------------|

then back into the verse starting with A

* also then edge starts to do this sometimes
when he plays the A now

e-0-0-0-0-0-|
b-2-0-2-0-2-|
g-2-2-2-2-2-|
d-2-2-2-2-2-|
a-0-0-0-0-0-|
e-----------|

supadad915@yahoo.com
Comments