U2 - Original Of The Species Chords & Tabs

 

Original Of The Species Chords & Tabs

U2 Chords & Tabs

Version: 1 Type: Tab 0 ratings
1 star 2 stars 3 stars 4 stars 5 stars
comments

Original Of The Species Tab

   
Song: Original Of The Species
Artist: U2
Album: How To Dismantle An Atomic Bomb
Tabbed by: Jase Warner (trip_through_your_wires@hotmail.com)
Written into Ultimate-guitar.com by Alex V.

Im not sure how to label some parts in the song but i've put it out
in running order anyway so enjoy...

Standard Tuning (E,A,D,G)

First Verse: (wait for bass):

G|-----------------|-----------------|-----------------|-----------------|
D|*----------------|-----------------|-----------------|----------------*|
A|*----------------|-----------------|-----------------|-4-----4---4-4--*|
E|-5~--------------|-0~--------------|-2~--------------|-----------------|

G|-----------------|-----------------|-----------------|-----------------|
D|*----------------|-----------------|-----------------|----------------*|
A|*----------------|-----------------|-----------------|-4-4---4---4-4--*|
E|-5-5---5---5-5---|-0-0---0---0-0---|-2-2---2---2-2---|-----------------|

G|-----------------|-----------------|-----------------|-----------------|
D|*----------------|-----------------|-----------------|----------------*|
A|*--------5--5-55-|-----------------|---------5--5-55-|----------------*|
E|-3--3-33---------|-5--5--5-5--55-5-|-3--3-33---------|-5--5--5-5--55-5-|

Break:

G|-----------------|-----------------|-----------------|---------------------|
D|*----------------|-----------------|----------------*|*-------------------*|
A|*----------------|-3--3--3-3--33-3-|----------------*|*-------------------*|
E|-5--5--5-5--55-5-|-----------------|-5--5--5-5--55-5-|-3-7-\-8-\-10-\-12-/-|

Pre-Chorus:

G|-----------------|-----------------|-----------------|-----------------|
D|*----------------|-----------------|-----------------|----------------*|
A|*----------------|-----------------|-4--4-4--4--44-4-|-7--7-7--7--77-7*|
E|-5--5-5--5--55-5-|-2--2-2--2--22-2-|-----------------|-----------------|

G|-----------------|-----------------|-----------------|-----------------|
D|*----------------|-----------------|-----------------|----------------*|
A|*----------------|-----------------|-4--4-4--4--44-4-|-7--7-7--7--77-7*|
E|-5--5-5--5--55-5-|-2--2-2--2--22-2-|-----------------|-----------------|

Chorus:

G|-----------------|-----------------|-----------------|-----------------|
D|*----------------|-----------------|-----------------|----------------*|
A|*----------------|-----------------|-4--4-4--4--44-4-|-7--7-7--7--77-7*|
E|-5--5-5--5--55-5-|-2--2-2--2--22-2-|-----------------|-----------------|

Break:

G|-----------------|-----------------|-----------------|-----------------|
D|*----------------|-----------------|-----------------|----------------*|
A|*----------------|-----------------|-----------------|----------------*|
E|-5~--------------|-----------------|-----------------|-----------------|

G|-----------------|-----------------|-----------------|-----------------|
D|*----------------|-----------------|-----------------|----------------*|
A|*----------------|-----------------|-----------------|----------------*|
E|-----------------|-----------------|-----------------|-----------------|

Second Verse:

G|-----------------|-----------------|-----------------|-----------------|
D|*----------------|-----------------|-----------------|----------------*|
A|*----------------|-----------------|-----------------|-4-4---4---4-4--*|
E|-5-5---5---5-5---|-0-0---0---0-0---|-2-2---2---2-2---|-----------------|

G|-----------------|-----------------|-----------------|-----------------|
D|*----------------|-----------------|-----------------|----------------*|
A|*----------------|-----------------|-----------------|-4-4---4---4-4--*|
E|-5-5---5---5-5---|-0-0---0---0-0---|-2-2---2---2-2---|-----------------|
[ Tab from: http://www.guitartabs.cc/tabs/u/u2/original_of_the_species_tab.html ]
G|-----------------|-----------------|-----------------|-----------------|
D|*----------------|-----------------|-----------------|----------------*|
A|*--------5--5-55-|-----------------|---------5--5-55-|----------------*|
E|-3--3-33---------|-5--5--5-5--55-5-|-3--3-33---------|-5--5--5-5--55-5-|

Break:

G|-----------------|-----------------|-----------------|---------------------|
D|*----------------|-----------------|----------------*|*-------------------*|
A|*----------------|-3--3--3-3--33-3-|----------------*|*-------------------*|
E|-5--5--5-5--55-5-|-----------------|-5--5--5-5--55-5-|-3-7-\-8-\-10-\-12-/-|

Pre-Chorus:

G|-----------------|-----------------|-----------------|-----------------|
D|*----------------|-----------------|-----------------|----------------*|
A|*----------------|-----------------|-4--4-4--4--44-4-|-7--7-7--7--77-7*|
E|-5--5-5--5--55-5-|-2--2-2--2--22-2-|-----------------|-----------------|

G|-----------------|-----------------|-----------------|-----------------|
D|*----------------|-----------------|-----------------|----------------*|
A|*----------------|-----------------|-4--4-4--4--44-4-|-7--7-7--7--77-7*|
E|-5--5-5--5--55-5-|-2--2-2--2--22-2-|-----------------|-----------------|

Chorus:

G|-----------------|-----------------|-----------------|-----------------|
D|*----------------|-----------------|-----------------|----------------*|
A|*----------------|-----------------|-4--4-4--4--44-4-|-7--7-7--7--77-7*|
E|-5--5-5--5--55-5-|-2--2-2--2--22-2-|-----------------|-----------------|

Break:

G|-----------------|-----------------|-----------------|--------------------------|
D|*----------------|-----------------|-----------------|-------------------------*|
A|*----------------|-----------------|-----------------|-\12-12-12-12-12-12-12-12*|
E|-5~--------------|-----------------|-----------------|--------------------------|

Bridge:

G|-----------------|-----------------|-----------------|-----------------|
D|*----------------|-----------------|-----------------|----------------*|
A|*--------5--5-55-|-----------------|---------5--5-55-|----------------*|
E|-3--3-33---------|-5--5--5-5--55-5-|-3--3-33---------|-5--5--5-5--55-5-|

G|-----------------|-----------------|-----------------|-----------------|
D|*----------------|-----------------|-----------------|----------------*|
A|*--------5--5-55-|-----------------|---------5--5-55-|----------------*|
E|-3--3-33---------|-5--5--5-5--55-5-|-3--3-33---------|-5--5--5-5--55-5-|

Chorus:

G|-----------------|-----------------|-----------------|-----------------|
D|*----------------|-----------------|-----------------|----------------*|
A|*----------------|-----------------|-4--4-4--4--44-4-|-7--7-7--7--77-7*|
E|-5--5-5--5--55-5-|-2--2-2--2--22-2-|-----------------|-----------------|

G|-----------------|-----------------|-----------------|-----------------|
D|*----------------|-----------------|-----------------|----------------*|
A|*----------------|-----------------|-4--4-4--4--44-4-|-7--7-7--7--77-7*|
E|-5--5-5--5--55-5-|-2--2-2--2--22-2-|-----------------|-----------------|

G|-----------------|-----------------|-----------------|-----------------|
D|*----------------|-----------------|-----------------|----------------*|
A|*----------------|-4--4-4--4--44-4-|-5--5-5--5--55-5-|----------------*|
E|-5--5-5--5--55-5-|-----------------|-----------------|-7--7-7--7--77-7-|

G|-----------------|-----------------|-----------------|-------------------------|
D|*----------------|-----------------|-----------------|------------------------*|
A|*----------------|-4--4-4--4--44-4-|-5--5-5--5--55-5-|-\16-16-16--16-16-16-14\*|
E|-5--5-5--5--55-5-|-----------------|-----------------|-------------------------|

Ending:

G|-----------------|-----------------|
D|*----------------|----------------*|
A|*----------------|----------------*|
E|-5~--------------|-----------------|
Comments