U2 - One Tree Hill Live Chords & Tabs

 

One Tree Hill Live Chords & Tabs

U2 Chords & Tabs

Version: 1 Type: Tab 0 ratings
1 star 2 stars 3 stars 4 stars 5 stars
comments

One Tree Hill Live Tab

   
One Tree Hill (live)
Tabbed by John Couillard
tune down half a step

Intro: delay ,play quietly, listen for sliding
repeat pattern twice.

E------------------------------------------|
B-----13---13---13---13--6---6---6---6-----|
G---12---12---12---12---5---5---5---5------|
D-10---10---10---10---\3---3---3---3-------|
A------------------------------------------|
E------------------------------------------|

Edge slides back and forth so listen carefully
he slides more then once in one pattern.

then

D--12/---5-------5-------3---------3--------------5-|
A-----3-------3-------3-----3/1\3-----3---3---3-----|

then partB
(listen to know how many times to repeat)
e--------------8--------------8--------8---8---10--8---|
b-------11-------11-----10-10---10-8-8---8---8-------8-|
g----10----10-------10---------------------------------|
d--8---------------------------------------------------|
a------------------------------------------------------|
e------------------------------------------------------|

then

E-----------------------------------------------------|
B----13-13-13---------------------6-6-6---------------|
G------------12-12--------12-12--------5-5-----5-5----|
D-10--------------10-10-10-----/3---------3-3-3---/---|
A-----------------------------------------------------|
E-----------------------------------------------------|
[ Tab from: http://www.guitartabs.cc/tabs/u/u2/one_tree_hill_live_tab.html ]
E------------------------x--x-x-x-x-x-x-x-x-x---------|
B-13-13-13---------------13-x-x-x-x-x-13131313--------|
G---------12-12----------12-x-x-x-x-x-12121212--------|
D--------------10-10-10--x--x-x-x-x-x-x-x-x-x---------|
A------------------------x--x-x-x-x-x-x-x-x-x---------|
E-----------------------------------------------------|

then

E-----------------------------------------------------|
B----13-13-----------13-13--------6-6------6-6--------|
G-----------12--------------12--------5--------5------|
D-10-------------10------------\3--------3------------|
A-----------------------------------------------------|
E-----------------------------------------------------|

E-----------------------------------------------------|
B----11-11-------6-6--------13-13-------13-11-13------|
G----------10--------5------------12----12-12-12------|
D-10----------3---------10-----------10---------------|
A-----------------------------------------------------|
E-----------------------------------------------------|

listen to repeat bars above

then play part B (END WITH E-8/10\8
                           B-8/10\8
then play part A

then B again

then end with solo:

E--------------------------------------------------------|
B--------------------------------------------------------|
G--------------------------------------------------------|
D--------------------------------------------------------|
A-1(B)~-1(B)~-3P1H3P1--0-0-1h0p1h0p1h0p1--3-3-3~~/6(b)\3-|
E--------------------------------------------------------|

E--8-8-8-8-8-8h10p8h10p8-------------------------15--15---|
B--8-8-8-8-8-8h10p8h10p8--15(b)-15(b)-15(b)-13-15--15--15-|
G--8-8-8-8-8-8--------------------------------------------|
D--x-x-x-x-x-x--------------------------------------------|
A--x-x-x-x-x-x--------------------------------------------|
E---------------------------------------------------------|

supadad915@yahoo.com
Comments