U2 - One Chords & Tabs

 

One Chords & Tabs

U2 Chords & Tabs

Version: 2 Type: Bass Tab 0 ratings
1 star 2 stars 3 stars 4 stars 5 stars
comments

One Bass Tab

   
#----------------------------------PLEASE NOTE---------------------------------#
#This file is the author's own work and represents their interpretation of the #
#song. You may only use this file for private study, scholarship, or research. #
#------------------------------------------------------------------------------##
Date: Sun, 3 Dec 1995 13:33:44 -0500
From: am560@freenet.carleton.ca (Glen Palmer)
Subject: U2 ONE - BASS TAB

U2 ONE (BASS TAB)
-----------------
steve palmer - am560@freenet.carleton.ca

The bass doesn't come in until Bono sings the first line of the 
second verse: 'did i disappoint you...'

Verse:
------
   Am           Dadd2        Fmaj7        Gadd6  
g|------------------------------------------------------|
d|------------------------2--3--3--0-3-0--5--5--2-0-----|
a|-0--0----0-3--5--5--3-5---------------------------3---|
E|-------3----------------------------------------------|

   Am           Dadd2        Fmaj7        Gadd6  
g|------------------------------------------------------|
d|------------------------2--3--3--0-3-0--5--5--2-0-----|
a|-0--0----0-3--5--5--3-5---------------------------3---|
E|-------3----------------------------------------------|


Chorus: (also outro)
--------------------
[ Tab from: http://www.guitartabs.cc/tabs/u/u2/one_btab_ver_2.html ]
   C            Am           Fmaj7        C   
g|------------------------------------------------------|
d|------------------------------------------------------|
a|-3--3--2-3-2--0--0----0--------------2--3--3--2-3-2---|
E|--------------------3---3--1--1--0-1------------------|

   C            Am           Fmaj7        C   
g|------------------------------------------------------|
d|------------------------------------------------------|
a|-3--3--2-3-2--0--0----0--------------2--3--3--2-3-2---|
E|--------------------3---3--1--1--0-1------------------|


Bridge:
-------

   C            Am           C            Am
g|------------------------------------------------------|
d|------------------------------------------------------|
a|-3--3--2-3-2--0--0----0-2--3--3--2-3-2--0--0----0-2---|
E|--------------------3-------------------------3-------|
  Love is a temple...

   C            G
g|-----------------------------------------|
d|-----------------------------------------|
a|-3--3--2-3-2-----------------------------|
E|--------------3--3--1-3-1--3--3--1-3-1---|
  You ask me to enter...

   F                         C           Am
g|------------------------------------------------------|
d|------------------------------------------------------|
a|------------------------2--3--3--2-3-2--0--0----0-----|
E|-1--1--0-1-0--1--1--0-1-----------------------3---3---|

   Fmaj7        C   
g|----------------------------|
d|----------------------------|
a|-----------2--3--3--2-3-2---|
E|-1--1--0-1------------------|

Continue with chorus chords until end.



suggestions welcome.

Comments