U2 - New Years Day Chords & Tabs

 

New Years Day Chords & Tabs

U2 Chords & Tabs

Version: 4 Type: Bass Tab 0 ratings
1 star 2 stars 3 stars 4 stars 5 stars
comments

New Years Day Bass Tab

   
hey i play this song with my band so its garanteed to be right!!

INTRO
g-----------|---------|-------------|-----------|--------|
d-------9---|---------|-------------|-------9---|--------|
a-11-11---11|-----6---|--------9----|-11-11---11|----6---|
e-----------|-7-7---7-|--11-11---11-|-----------|-7-7--7-|

g-----------------------------------------------------------------------|
d-----------------------------------------------------------------------|
a-9-9-9-9-9-9-9-9-|-9-9-9-9-9-9-9-9-|-7-7-7-7-7-7-7-7-|-7-7-7-7-7-7-7-7-|
e-----------------------------------------------------------------------|

g------------------------------------------------------------|
d------------------------------------------------------------|
a-9-9-9-9-9-9-9-9-9-9-9-9-9-9-9-9-9-|11-11-11-11-11-11-11-11-|
e------------------------------------------------------------|

g-------------------------|-----------------------------------|
d-------------------------|-----------------------------------|
a-11-11-11-11-11-11-11-11-|-9-9-9-9-9-9-9-9-9-9-9-9-9-9-9-9-9-|
e-------------------------|-----------------------------------|
[ Tab from: http://www.guitartabs.cc/tabs/u/u2/new_years_day_btab_ver_4.html ]
g------------------------------------|
d------------------------------------|
a-7-7-7-7-7-7-7-7-7-|7-7-7-7-7-7-7-7-|
e------------------------------------|


Verse
g--------------------|---------------|----------------------|
d-------9------------|---------------|----------------------|
a-11-11---11-11-11-11|-----6---------|--------9-------------|
e--------------------|-7-7---7-7-7-7-|--11-11---11-11-11-11-|

Chorus
g-----------------------------------------------------------------|
d-----------------------------------------------------------------|
a-9-9-9-9-9-9-9-9-9-|-9-9-9-9-9-9-9-9-9-|-11-11-11-11-11-11-11-11-|
e-----------------------------------------------------------------|

g------------------------------------------------------------|
d------------------------------------------------------------|
a-11-11-11-11-11-11-11-11-|-9-9-9-9-9-9-9-9-|-9-9-9-9-9-9-9-9|
e------------------------------------------------------------|

g-------------------------------------|
d-------------------------------------|
a-7-7-7-7-7-7-7-7-7-|-7-7-7-7-7-7-7-7-|
e-------------------------------------|

End On
g----------|
d----------|
a-11-------|
e----------|


Order
intro  x1
verse  x5
chorus  x1
verse  x5
Chorus  x2
intro  x1
verse  x5
chorus x3
End on  x1


ENJOY!!
Comments