U2 - Miracle Drug Chords & Tabs

 

Miracle Drug Chords & Tabs

U2 Chords & Tabs

Version: 2 Type: Tab 0 ratings
1 star 2 stars 3 stars 4 stars 5 stars
comments

Miracle Drug Tab


Standard Tuning


e|---------------------------7-----|
b|-----10--------------------------|
g|-7--------9---7/9-----7--------7-|  2x
d|---------------------------------|
a|---------------------------------|
E|---------------------------------|



Verse :

e|---------------------------7-----|
b|-----10--------------------------|
g|-7--------9---(7/9)---7--------7-|  4x
d|---------------------------------|
a|---------------------------------|
E|---------------------------------|

     I wanna trip...


[ Tab from: http://www.guitartabs.cc/tabs/u/u2/miracle_drug_tab_ver_2.html ]
e|----------------------------------|
b|----------------------------------|
g|----------------------------------|
d|----------------------------------|
a|-5--4---0*-------------5--4-------|
E|-------------------------------3*-|
   
    Freedom has...



Chours

e|-10-10-10-10-10-10-10-10--10-10-10-10-10-10-10-10-|
b|-7--7--7--7--7--7--7--7---8--8--8--8--8--8--8--8--|
g|-7--7--7--7--7--7--7--7---7--7--7--7--7--7--7--7--|
d|--------------------------------------------------| 3x
a|--------------------------------------------------|
E|--------------------------------------------------|
Comments