U2 - Lemon Chords & Tabs

 

Lemon Chords & Tabs

U2 Chords & Tabs

Version: 2 Type: Tab 0 ratings
1 star 2 stars 3 stars 4 stars 5 stars
comments

Lemon Tab

Song Title: Lemon
Artist/Band: U2
Album: Pop

Tab by JC Rea(jcrp_21@hotmail.com)

Tuning: Standard

Main riff:******************************>This is heard during:
e|----------------------------------|    "And I feel
B|--------7-9------7-9-9--11-7-9----|     Like I'm slowly, slowly,slowly 
G|-10--10-------10---------------8--|     slipping under
D|----------------------------------|     And I feel
A|----------------------------------|     Like I'm holding onto nothing"
E|----------------------------------|(x2)

Piano riff(Tabbed for guitar):**************************************>Heard during:
e|---------------|---------------|---------------|---------------|  "Midnight 
B|-7---6---7---9-|-7---6---7---9-|-7---6---7---9-|-7---6---7---9-|   is where the day begins" 
G|---6---6---6---|---6---6---6---|---6---6---6---|---6---6---6---|
D|---------------|---------------|---------------|---------------|
A|---------------|---------------|---------------|---------------|
E|---------------|---------------|---------------|---------------|
[ Tab from: http://www.guitartabs.cc/tabs/u/u2/lemon_tab_ver_2.html ]
e|-----------------|-----------------|-----------------|-----6---------|
B|-9---7---6---7---|-9---7---6---7---|-9---7---6---7---|-9-------9---7-|
G|---6---6---6---6-|---6---6---6---6-|---6---6---6---6-|---6---6---6---|
D|-----------------|-----------------|-----------------|---------------|
A|-----------------|-----------------|-----------------|---------------|
E|-----------------|-----------------|-----------------|---------------|

e|-----------------|-----------------|-----------------|-----6---------|
B|-9---7---6---7---|-9---7---6---7---|-9---7---6---7---|-9-------9---7-|
G|---6---6---6---6-|---6---6---6---6-|---6---6---6---6-|---6---6---6---|
D|-----------------|-----------------|-----------------|---------------|
A|-----------------|-----------------|-----------------|---------------|
E|-----------------|-----------------|-----------------|---------------|

e--------------------|---------------|
B|---9---7---6---7---|-9---7---6---7-|
G|-6---6---6---6---6-|---6---6---6---|
D|-------------------|---------------|
A|-------------------|---------------|
E|-------------------|---------------|

That's all for U2's simplest song.

Comments:jcrp_21@hotmail.com
Comments