U2 - Kite Chords & Tabs

 

Kite Chords & Tabs

U2 Chords & Tabs

Version: 1 Type: Bass Tab 0 ratings
1 star 2 stars 3 stars 4 stars 5 stars
comments

Kite Bass Tab

Kite by U2
Standard Tuning

G:----------|----------|----------|----------|
D:----------|----------|----------|----------|  x4
A:----------|----------|----4----7|-----4-5-7|
E:----0-----|--5----0--|5---------|0-5-------|

G:----------|----------|----------|----------|
D:----------|----------|----------|----------|  x2
A:----------|----4----7|-----4-5-7|----0-----|
E:----0-----|5---------|0-5-------|----------|

You need some protection...
G:----------|----------|----------|----------|
D:----------|----------|----------|----------|  x2
A:4--4--4--4|4--4--4--2|----------|---------2|
E:----------|----------|5--5--5--5|5--5--5---|

G:----------|----------|----------|----------|
D:----------|----------|----------|----------|__
A:7--7--7--7|7--7--7--7\2--2--2--2|2--2--2--2|  |
E:----------|----------|----------|----------|  |
                                                |__x2
G:----------|----------|----------|----------|  |
D/7--7--7--7|7--7--7--7|----------|----------|  |
A:----------|----------|0--0--0--0|0--0--0--0|__|
E:----------|----------|----------|----------|

G:----------|----------|----------|----------|
D:----------|----------|----------|----------|  x4
A:----------|----------|----4----7|-----4-5-7|
E:----0-----|--5----0--|5---------|0-5-------|
[ Tab from: http://www.guitartabs.cc/tabs/u/u2/kite_btab.html ]
G:----------|----------|----------|----------|
D:----------|----------|----------|----------|  x2
A:----------|----4----7|-----4-5-7|----0-----|
E:----0-----|5---------|0-5-------|----------|

G:----------|----------|----------|----------|
D:----------|----------|----------|----------|
A:4--4--4--4|4--4--4--2|----------|---------2|
E:----------|----------|5--5--5--5|5--5--5---|

G:----------|----------|----------|----------|
D:----------|----------|----------|----------|__
A:7--7--7--7|7--7--7--7\2--2--2--2|2--2--2--2|  |
E:----------|----------|----------|----------|  |
                                                |__x4
G:----------|----------|----------|----------|  |
D/7--7--7--7|7--7--7--7/7--7--7--7|7--7--7--7|  |
A:----------|----------|----------|----------|__|
E:----------|----------|----------|----------|

G:----------|----------|----------|----------|
D:----------|----------|----------|----------|  x8
A:----------|----------|----4----7|-----4-5-7|
E:----0-----|--5----0--|5---------|0-5-------|

(Outro)
G:----------|----------|----------|----------|
D:----------|----------|----------|----------|
A:----------|----------|----------|----------|
E:----0-----|----------|----------|----------|

Thanks, please rate it after you learn it.
Tabbed by:
_TheBassist01_
Comments