U2 - In A Little While Chords & Tabs

 

In A Little While Chords & Tabs

U2 Chords & Tabs

Version: 1 Type: Bass Tab 0 ratings
1 star 2 stars 3 stars 4 stars 5 stars
comments

In A Little While Bass Tab

   
-------------------------------------------------------------------------------
			     IN A LITTLE WHILE - U2
-------------------------------------------------------------------------------

By: Jeff Maraz (jeff@phantasygaming.com)


fingerings:
h = hammer

timing:

w = whole note
h = half note
q = quarter note
e = eighth note
s = sixteenth note

\__/ represents a tie.


I am pretty sure that this tab is nearly perfect (at least I hope so.) Just play
the tab from top to bottom, repeating the lines however many times it says on the
right. I included the timings at the top of each note. If you follow those it
should sound exactly like in the song. It uses standard tuning like pretty much
every U2 song. Enjoy.


*** Verse 1:

  e e e e e e e e | e e e e e e e e | e e e e e e e e | e e e e e e e e 
------------------|-----------------|-----------------|-----------------| 
4-----------------|-----------------|-----------------|-----------------|
4-----------------|-2-2-R-2-----R---|-5-5-R-5-R-5-R-5-|-----------------| x3
--5-5-R-5-2-2-R-2-|---------3-3---3-|-----------------|-5-5-R-5-R-5-R-0-|


  e e e e e e e e | e e e e e e e e | e e e e e e e e | e e e e e e e s s
------------------|-----------------|-----------------|-------------------| 
------------------|-----------------|-----------------|-------------------|
------------------|-2-2-R-2-----R---|-5-5-R-5-R-5-R-5-|-------------------| x1
--5-5-R-5-2-2-R-2-|---------3-3---3-|-----------------|-5-5-R-5-R-5-R-0h6-|


*** Chorus 1:

  q e e e e e e q+e e q+e e | s s q s s e e e e | q e e s s e e e |
----------------------------|-------------------|-----------------|
--------------------5-----5-|-------------------|-----------------|
----7h8h9-7-----------------|-3h4h5-3h4h5-4-3-2-|-------5h6h7-----| x1
-h7---------9-7-3-----3-----|-------------------|-5-5-5-------5-R-|

*** Verse 2:
      
  e e e e e e e e | e e e e e e e e | e e e e e e e e | e e e e e e e e 
------------------|-----------------|-----------------|-----------------| 
------------------|-----------------|-----------------|-----------------|
------------------|-2-2-R-2-----R---|-5-5-R-5-R-5-R-5-|-----------------| x3
--5-5-R-5-2-2-R-2-|---------3-3---3-|-----------------|-5-5-R-5-R-5-R-0-|

[ Tab from: http://www.guitartabs.cc/tabs/u/u2/in_a_little_while_btab.html ]
  e e e e e e e e | e e e e e e e e | e e e e e e e e | e e e e e e e s s
------------------|-----------------|-----------------|-------------------| 
------------------|-----------------|-----------------|-------------------|
------------------|-2-2-R-2-----R---|-5-5-R-5-R-5-R-5-|-------------------| x1
--5-5-R-5-2-2-R-2-|---------3-3---3-|-----------------|-5-5-R-5-R-5-R-0h6-|


*** Chorus 2:

  q e e e e e e q+e e q+e e | s s q s s e e e e | q e e s s e e s s |
----------------------------|-------------------|-------------------|
--------------------5-----5-|-------------------|-------------------|
----7h8h9-7-----------------|-3h4h5-3h4h5-4-3-2-|-------5h6h7-------| x1
-h7---------9-7-3-----3-----|-------------------|-5-5-5-------5-0h6-|
      
  q e e e e e e q+e e q+e e | s s q s s e e e e | q+e s s e e e e |
----------------------------|-------------------|-----------------|
--------------------5-----5-|-------------------|-----------------|
----7h8h9-7-----------------|-------7h8h9-7-----|-----7h8h9-7-----| x3
-h7---------9-7-3-----3-----|-3h4h5---------9-7-|-5-----------9-7-|


*** Bridge:

  h e q+e | e e e e e e e e | e e e e e e e e | e e e e e e e s s
----------|-----------------|-----------------|-------------------| 
----------|-----------------|-----------------|-------------------|
----------|-2-2-R-2-----R---|-5-5-R-5-R-5-R-5-|-------------------| x1
--5-5-2---|---------3-3---3-|-----------------|-5-5-R-5-R-5-R-0h6-|


*** Chorus 3:

  q e e e e e e q+e e q+e e | s s q s s e e e e | q e e s s e e s s |
----------------------------|-------------------|-------------------|
--------------------5-----5-|-------------------|-------------------|
----7h8h9-7-----------------|-3h4h5-3h4h5-4-3-2-|-------5h6h7-------| x1
-h7---------9-7-3-----3-----|-------------------|-5-5-5-------5-0h6-|
 
     
  q e e e e e e q+e e q+e e | s s q s s e e e e | q+e s s e e e e |
----------------------------|-------------------|-----------------|
--------------------5-----5-|-------------------|-----------------|
----7h8h9-7-----------------|-------7h8h9-7-----|-----7h8h9-7-----| x2
-h7---------9-7-3-----3-----|-3h4h5---------9-7-|-5-----------9-7-|


  q e e e e e e q+e e q+e e | s s q s s e e e e |  q+e s s e e e e |
----------------------------|-------------------|------------------|
--------------------5-----5-|-------------------|------------------|
----7h8h9-7-----------------|-------7h8h9-7-----|------7h8h9-7---4-| x1
-h7---------9-7-3-----3-----|-3h4h5---------9-7-|-5------------5---|


  w   w
----|---||
----|---||
--5-|-5-|| x1
----|---||
   \_/
Comments