U2 - Grace Chords & Tabs

 

Grace Chords & Tabs

U2 Chords & Tabs

Version: 1 Type: Tab 0 ratings
1 star 2 stars 3 stars 4 stars 5 stars
comments

Grace Tab

           Grace-by U2
from "All That You Can't Leave Behind"

Tabbed by Kevin Brosky

This is a beautiful song and it should be played with a very clean tone.


Verse Riff 1:

e|-----------------------------
B|-8----8----------------------
G|-7h9--7--------------7-------          Play that 4 times
D|---------10-10--7-10---10-7--
A|-----------------------------
E|-----------------------------


Verse Riff 2:
[ Tab from: http://www.guitartabs.cc/tabs/u/u2/grace_tab.html ]
e|--------------------------------
B|-10-----10----------------------
G|--9h10--9-----------------------
D|-----------12-10----10-12--10---       Play that 2 times
A|-----------------12-----------12
E|--------------------------------


Chorus Riff:

e|--------------------------------------------------   This part may change
B|-8--8-8----8-----8---10-----10--10---10-----------   for some of the other
G|-7--9-7----7-----7---9h10---9---9h10--9---------7-   choruses in the song
D|--------10----10---------------12--------12-10----   but this is basically
A|--------------------------------------------------   what it sounds like.
E|--------------------------------------------------  
 

Then back into Verse Riff 1 and do it over again.
Comments