U2 - Gone Live Chords & Tabs

 

Gone Live Chords & Tabs

U2 Chords & Tabs

Version: 1 Type: Tab 0 ratings
1 star 2 stars 3 stars 4 stars 5 stars
comments

Gone Live Tab

   
Gone (live Popmart Mexico City)
Tabbed by John Couillard
Tuned down 1/2 step

Intro:(distortion..I like to add some delay on this part,edge dosent)

 E
-0-0-0-0-0-0--| listen for when to slide ..this is played a few times
-0-0-0-0-0-0--| END WITH AND E CHORD..AND LET RING
-1-1-1-1-1/3--|
-2-2-2-2-2/4--|
-2-2-2-2-2/4--|
-0-0-0-0-0-0--|

VERSE:(AGAIN LISTEN FOR WHEN TO STRUM)

 G          A                E
-3----------0----------------0-|
-3----------2----------------0-|
-0----------2----------------1-|
-0----------2----------------2-|
-2----------0----------------2-|
-3----------X----------------0-|

"GOODBYE" PART

  G            D          G             Em         C
--3--3-----|----2-2------|--3--3--------|---0----0-----------------|
--3----3---|----3---3----|--3----3------|---0-----0-------0--------|
--0--------|----2-----2--|--0-----------|---0--0---0----2---2------|
--0--------|----0--------|--0-----------|---2-2-----2-3-------3--2-|
--2--------|----0--------|--2-----------|--------------------------|
--3--------|-------------|--3--------3-2|--------------------------|
[ Tab from: http://www.guitartabs.cc/tabs/u/u2/gone_live_tab.html ]
 Am          Dsus  D
 -------0----|-3---|--2--2------------|    <<=============== REPEAT THIS PART
.-----1---1--|-3---|--3----3----------|    STARTING WITH Am IS THE CHORUS
 ---2-------2|-2---|--2------2--------|      LISTEN TO KNOW HOW MANY TIMES
 -2----------|-0---|--0---------------|      IT IS PLAYED..
.------------|-----|------------------|
 ------------|-----|------------------|


then rip into INTRO again

then VERSE again

then GOODBYE part and CHORUS

"cause im already gone" part
(with tremelo)

 Em                  Am                 Em                Am
-0-------------------0------------------0-----------------0--------|
-0-------------------1------------------0-----------------1--------|
-0-------------------2------------------0-----------------2--------|
-2-------------------2------------------2-----------------2--------|
-2-------------------0------------------2-----------------0--------|
-------------------------------------------------------------------|

"closer to you everyday " part

 D          C              D              C                      E
-2--2-----|--0--0------|---2--2-------|---0-0-------------------|0-|
-3----3---|--1----1----|---3----3-----|---1---1-----------------|0-|
-2------2-|--0------0--|---2------2---|---0-----0------0---0----|1-|
-0--------|--2---------|---0----------|---2----------0---0------|2-|
-0--------|--3---------|---0----------|---3--------3---2-----3-2|2-|
----------|------------|--------------|-------------------------|0-|


let the Echord ring out and still with tremelo :

play VERSE when time comes
then back to distortion

to play: "goodbye"part and CHORUS

end song with outro of E and A chords...thats it!

supadad915@yahoo.com
Comments