U2 - Even Better Than The Real Thing Chords & Tabs

 

Even Better Than The Real Thing Chords & Tabs

U2 Chords & Tabs

Version: 2 Type: Bass Tab 0 ratings
1 star 2 stars 3 stars 4 stars 5 stars
comments

Even Better Than The Real Thing Bass Tab

U2 - "Even better then the real thing" - for Bass

Studio version (Achtung Baby)

Transcripted by Andreas Blidell (a_blidell@hotmail.com)

Intro                     Verse 
G|-----------------------|-----------------------------------|
D|--7--5-----------------|-----------------------------------|
A|--------7--5-----------|-----------------------------3-----|
E|--------------8--7--0--|--5--5--5--5--5--5--0--3--5-----0--|

G|-----------------------------------|-----------------------------------|
D|-----------------------------------|-----------------------------------|
A|-----------------------------3-----|-----------------------------3-----|
E|--5--5--5--5--5--5--0--3--5-----0--|--5--5--5--5--5--5--0--3--5-----0--|

G|-----------------------------------|-----------------------------------|
D|-----------------------------------|-----------------------------------|
A|-----------------------------3-----|--5--5--5--5--5--5-----------3-----|
E|--5--5--5--5--5--5--0--3--5-----0--|--------------------0--3--5-----0--|
[ Tab from: http://www.guitartabs.cc/tabs/u/u2/even_better_than_the_real_thing_btab_ver_2.html ]
                                
G|-----------------------------------|
D|-----------------------------------|
A|-----------------------------------|
E|--5--5--5--5--5--5--0--3--5--0-----|
                                              
Pre-chorus

G|--------------------------------------------------|
D|--------------------------------------------------|
A|--------------------------------------------------|
E|--3--3--3--3--3--3--3--3--3--3--3--3--3--3--3--3--|

G|--------------------------------------------------|
D|--------------------------------------------------|
A|--2--2--2--2--2--2--2--2--2--2--2--2--2--2--2--2--|
E|--------------------------------------------------|

G|--------------------------------------------------|
D|--0--0--0--0--0--0--0--0--0--0--0--0--0--0--0--0--|
A|--------------------------------------------------|
E|--------------------------------------------------|


G|-----------------------------------|
D|-----------------------------------|
A|-----------------------------3-----|
E|--5--5--5--5--5--5--0--3--5-----0--|

Chorus (X4)
G|-----------------------------------------------|
D|-----------------------------------0--0--0--0--|
A|--0--0--0--0--0--0--------0--2--3--------------|
E|--------------------0--3-----------------------|

Verse 

Pre-Chorus 

Chorus 

Solo  (The same as chorus)

Chorus

I hope I`ve done this right because it`s all from my head

Any suggestions? Write to me (a_blidell@hotmail.com)
Comments