U2 - Elevation Chords & Tabs

 

Elevation Chords & Tabs

U2 Chords & Tabs

Version: 4 Type: Tab 0 ratings
1 star 2 stars 3 stars 4 stars 5 stars
comments

Elevation Tab

Ok knowones got this right so far, so this is it 100% correct i promise you!

\ = slide
" = tremelo picking (pluck really fast)
x = mute

Intro (w/dist + octaver)
e-----------
B----------- 
G----------- x4
D-----------
A----7------
E-------5---

Main Riff/chorus (plain distortion)
e---------------------------          e-----------------------------
B---9--9--x-x-14-14-14-14\--          B-----------------------------
G---9--9--x-x-14-14-14-14\-- x6 then  G---16--16--x-x-x-x--14--14\-- x1
D---9--9--x-x-14-14-14-14\--          D---16--16--x-x-x-x--14--14\--
A---7--7------12-12-12-12\--          A---14--14--x-x-x-x--12--12\--
E---0--0--------------------          E-----------------------------

Verse (w/octaver)
e--------------------------------------------
B--------------------------------------------
G-------------------------------------------- x4
D--------------------------------------------
A---------------------7--7-----7--7--7---(7)-
E---7---7---5---5----------------------------

Pre-chorus (plain distortion)
e--------------------------------------------------
B--------------------------------------------------
G----------------------9-----9--9--9--9--9--9------
D----------------------9-----9--9--9--9--9--9---9-- x4
A---9--9/--7--7--7--7--7-----7--7--7--7--7--7---9--
E---7--7/--5--5--5--5--------0--0--0--0--0--0---7--

chorus (plain distortion)
e---------------------------          e-----------------------------
B---9--9--x-x-14-14-14-14\--          B-----------------------------
G---9--9--x-x-14-14-14-14\-- x3 then  G---16--16--x-x-x-x--14--14\-- x1
D---9--9--x-x-14-14-14-14\--          D---16--16--x-x-x-x--14--14\--
A---7--7------12-12-12-12\--          A---14--14--x-x-x-x--12--12\--
E---0--0--------------------          E-----------------------------

Verse x4
Pre-chorus x 4
Chorus x6
[ Tab from: http://www.guitartabs.cc/tabs/u/u2/elevation_tab_ver_4.html ]
Middle (w/trem + delay + clean tone)
e------------0----------------------5--------------------
B----------------0---------------------------------------
G---------1---------1------------6-----6-----7-----6-----
D------2----------------------7-----------7-----------7--
A--------------------------0-----------------------------
E---0----------------------------------------------------

e------------0---------------------10-----------------------10--------
B----------------0--------------7--------7---------------7-------10---
G---------1---------1--------7--------------7---------7---------------
D------2------------------0------------------------0------------------
A---------------------------------------------------------------------
E---0-----------------------------------------------------------------

e------------5------------------
B------------------5------5-----
G---------6---------------------
D------7------------------------
A---0---------------------------
E-------------------------------

Pre-chorus x4

Tremelo Picking (w/dist + wah-wah) " = tremelo picking
e----------------------------
B----------------------------
G---------------------------- x2
D--14"-13"-12"----12--(12)\--
A----------------------------
E--12"-11"-10"----10--(10)\--

e---------------------------------------------------------------
B---------------------------------------------------------------
G---------------------------------------------------------9--9--
D--14"--13"--12"-11"-10"--9"--5"-----7--7--7--7--7--7--7--9--9--
A---------------------------------------------------------7--7--
E--12"--11"--10"--9"--8"--7"--3"-----5--5--5--5--5--5--5--------

e---------------------------          e-----------------------------
B---9--9--x-x-14-14-14-14\--          B-----------------------------
G---9--9--x-x-14-14-14-14\-- x6 then  G---16--16--x-x-x-x--14--14\-- x1
D---9--9--x-x-14-14-14-14\--          D---16--16--x-x-x-x--14--14\--
A---7--7------12-12-12-12\--          A---14--14--x-x-x-x--12--12\--
E---0--0--------------------          E-----------------------------

Then end on....
e---0---
B---0---
G---9---
D---9---
A---7---
E---0---

Thank you boys and girls, hava blast with it!
Comments