U2 - Elevation Live Chords & Tabs

 

Elevation Live Chords & Tabs

U2 Chords & Tabs

Version: 1 Type: Tab 0 ratings
1 star 2 stars 3 stars 4 stars 5 stars
comments

Elevation Live Tab

   
This is for the live version played on the Elevation tour.

Use distortion for all parts.

*= let ring
b= bend

Tabbed by Joe Wilson

Intro:

e|---------------------------------------------------------|
B|---------------------------------------------------------|
G|---------------------------------------------------------|
D|---------------------------------------------------------|
A|--7-7-----7-7-----7-7-----7-7-7-7------------------------|
E|------5-5-----5-5-----5-5--------------------------------|

Chorus:

(Part 1):

e|---------------------------------------------------------|
B|---------------------------------------------------------|
G|---------------------------------------------------------|
D|-9-9-------9-9-------9-9---------------------------------|
A|-7-7--7-7--7-7--7-7--7-7--7-7----------------------------|
E|------5-5-------5-5-------5-5----------------------------|

(Part 2):

e|---------------------------------------------------------|
B|---------------------------------------------------------|
G|---------------------------------------------------------|
D|-9-9-------9-9-------9-9---------------------------------|
A|-7-7--7-7--7-7--7-7--7-7----9-9--7-7---------------------|
E|------5-5-------5-5---------7-7--5-5---------------------|

Verse:

(Part 1):

e|---------------------------------------------------------|
B|---------------------------------------------------------|
G|---------------------------------------------------------|
D|---------------------------------------------------------|
A|--7------------------------------------------------------|
E|-----5-5-5-5---------------------------------------------|

(Part 2):

e|---------------------------------------------------------|
B|---------------------------------------------------------|
G|---------------------------------------------------------|
D|--9------------------------------------------------------|
A|--7--0-7-7-7-7-------------------------------------------|
E|-----0-5-5-5-5-------------------------------------------|

Bridge:
[ Tab from: http://www.guitartabs.cc/tabs/u/u2/elevation_live_tab.html ]
e|---------------------------------------------------------|
B|---------------------------------------------------------|
G|---------------------------------------------------------|
D|----------0-----------0----------------------------------|
A|--5-5---5-----7-7---7------------------------------------|
E|------7-----------9--------------------------------------|

Solo:

(Part 1):

e|---------------------------------------------------------|
B|---------------------------------------------------------|
G|---------------------------------------------------------|
D|---------------------------------------------------------|
A|---------------------------------------------------------|
E|-12-12-12-12-12-12-12-12-11-11-11-11-11-11-11-11---------|

e|---------------------------------------------------------|
B|---------------------------------------------------------|
G|---------------------------------------------------------|
D|---------------------------------------------------------|
A|---------------------------------------------------------|
E|-10-10-10-10-10-10-10-10--9b-----------------------------|

(Part 2):

e|---------------------------------------------------------|
B|---------------------------------------------------------|
G|---------------------------------------------------------|
D|---------------------------------------------------------|
A|---------------------------------------------------------|
E|-12-12-12-12-12-12-12-12-11-11-11-11-11-11-11-11---------|

e|---------------------------------------------------------|
B|---------------------------------------------------------|
G|---------------------------------------------------------|
D|---------------------------------------------------------|
A|---------------------------------------------------------|
E|-10-10-10-10-10-10-10-10-9-9-9-9-9-9-9-9-8-8-8-8-7-7-7-7-|

e|---------------------------------------------------------|
B|---------------------------------------------------------|
G|---------------------------------------------------------|
D|---------------------------------------------------------|
A|---------------------------------------------------------|
E|-6-6-6-6-5-5-5-5-5-5-5-5*--------------------------------|

Breakdown:
==========

Intro,
Chorus part 1,
Chorus part 2,
Verse part 1 x8,
Verse part 2 x8,
Chorus part 1,
Chorus part 2,
Bridge x2,
Chorus part 1,
Chorus part 2,
Solo,
Chorus part 1,
Chorus part 2,

You have to listen quite hard for the guitar parts on the album version but they are there!
Comments