U2 - Discotheque Chords & Tabs

 

Discotheque Chords & Tabs

U2 Chords & Tabs

Version: 1 Type: Tab 0 ratings
1 star 2 stars 3 stars 4 stars 5 stars
comments

Discotheque Tab

DISCOTHEQUE

Music by U2 - Lyrics by Bono and The Edge

(LIVE VERSION FROM POPMART TOUR - 1997)

[Tune down your guitar 1/2 step.]

"You can reach
But you can't grab it
You can't hold it, control it
No, you can't bag it

You can push
But you can't direct it
Circulate, regulate, oh no
You cannot connect it

You know you're chewing bubblegum
You know what that is
But you still want some
You just can't get enough
Of that lovie-dovie stuff

1---------------------------------------------------------------------------|
2---------------------------------------------------------------------------|
3---------------------------------------------------------------------------|
4---------------------------------------------------------------------------|
5--5b-------7-------5b-----------------5b-------7-------5b------------------|
6-----7-5-7---7-5-7----7-5-7-x-x-7-5-7-------7-5-7---7-5-7-x-x-7-5-7--7-5-7-|

You get confused
But you know it
Yeah, you hurt for it, work for it, love
You don't always show it

1--x-x-x--x-x-x-x--x-x-x-x--x-x-x-x-x-x-|
2--x-x-x--x-x-x-x--x-x-x-x--x-x-x-x-x-x-|
3--x-x-x--x-x-x-x--x-x-x-x--x-x-x-x-x-x-|
4--x-x-x--x-x-x-x--x-x-x-x--x-x-x-x-x-x-|
5--x-x-x--x-x-x-x--x-x-x-x--x-x-x-x-x-x-|
6--x-x-x--x-x-x-x--x-x-x-x--x-x-x-x-x-x-|

Let go, let's go

1--------------------------------------|
2--------------------------------------|
3--------------------------------------|
4--------------------------------------|
5--5b-------7-------5b-----------------|
6-----7-5-7---7-5-7----7-5-7-x-x-7-5-7-|

Discoth?que

1--x-x-x--x-x-x-x--x-x-x-x--x-x-x-x-x-x-|
2--x-x-x--x-x-x-x--x-x-x-x--x-x-x-x-x-x-|
3--x-x-x--x-x-x-x--x-x-x-x--x-x-x-x-x-x-|
4--x-x-x--x-x-x-x--x-x-x-x--x-x-x-x-x-x-|
5--x-x-x--x-x-x-x--x-x-x-x--x-x-x-x-x-x-|
6--x-x-x--x-x-x-x--x-x-x-x--x-x-x-x-x-x-|

Go go, let's go

1--------------------------------------|
2--------------------------------------|
3--------------------------------------|
4--------------------------------------|
5--5b-------7-------5b-----------------|
6-----7-5-7---7-5-7----7-5-7-x-x-7-5-7-|

Discoth?que


1--5-5-5-5-5--7-7-7---5-5-5-5-5--7-7-7-|
2--7-7-7-5-7--9-9-9---7-7-7-5-7--9-9-9-|
3--7-7-7-5-7--9-9-9---7-7-7-5-7--9-9-9-|
4--7-7-7-5-7--9-9-9---7-7-7-5-7--9-9-9-|
5--5-5-5-5-5--7-7-7---5-5-5-5-5--7-7-7-|
6--5-5-5-5-5--7-7-7---5-5-5-5-5--7-7-7-|

Looking for the one
But you know you're somewhere else instead
You want to be the song
The song that you hear in your head

1-----------------------------------------------------------------------------|
2-----------------------------------------------------------------------------|
3-----------------------------------------------------------------------------|
4-----------------------------------------------------------------------------|
5--5b-------7-------5b-----------------5b-------7-------5b--------------------|
6-----7-5-7---7-5-7----7-5-7-x-x-7-5-7-------7-5-7---7-5-7----7-5-7-x-x-7-5-7-|

It's not a trick
You can't learn it
It's the way you don't pay, that's okay
'Cause you can't earn it
[ Tab from: http://www.guitartabs.cc/tabs/u/u2/discotheque_tab.html ]
1--x-x-x--x-x-x-x--x-x-x-x--x-x-x-x-x-x-|
2--x-x-x--x-x-x-x--x-x-x-x--x-x-x-x-x-x-|
3--x-x-x--x-x-x-x--x-x-x-x--x-x-x-x-x-x-|
4--x-x-x--x-x-x-x--x-x-x-x--x-x-x-x-x-x-|
5--x-x-x--x-x-x-x--x-x-x-x--x-x-x-x-x-x-|
6--x-x-x--x-x-x-x--x-x-x-x--x-x-x-x-x-x-|

Let go, let's go

1--------------------------------------|
2--------------------------------------|
3--------------------------------------|
4--------------------------------------|
5--5b-------7-------5b-----------------|
6-----7-5-7---7-5-7----7-5-7-x-x-7-5-7-|

Discoth?que

1--x-x-x--x-x-x-x--x-x-x-x--x-x-x-x-x-x-|
2--x-x-x--x-x-x-x--x-x-x-x--x-x-x-x-x-x-|
3--x-x-x--x-x-x-x--x-x-x-x--x-x-x-x-x-x-|
4--x-x-x--x-x-x-x--x-x-x-x--x-x-x-x-x-x-|
5--x-x-x--x-x-x-x--x-x-x-x--x-x-x-x-x-x-|
6--x-x-x--x-x-x-x--x-x-x-x--x-x-x-x-x-x-|

Go go, let's go

1--------------------------------------|
2--------------------------------------|
3--------------------------------------|
4--------------------------------------|
5--5b-------7-------5b-----------------|
6-----7-5-7---7-5-7----7-5-7-x-x-7-5-7-|

Discoth?que

1--x-x-x--x-x-x-x--x-x-x-x--x-x-x-x-x-x-|
2--x-x-x--x-x-x-x--x-x-x-x--x-x-x-x-x-x-|
3--x-x-x--x-x-x-x--x-x-x-x--x-x-x-x-x-x-|
4--x-x-x--x-x-x-x--x-x-x-x--x-x-x-x-x-x-|
5--x-x-x--x-x-x-x--x-x-x-x--x-x-x-x-x-x-|
6--x-x-x--x-x-x-x--x-x-x-x--x-x-x-x-x-x-|


1--------------------------------------|
2--------------------------------------|
3--------------------------------------|
4--------------------------------------|
5--5b-------7-------5b-----------------|
6-----7-5-7---7-5-7----7-5-7-x-x-7-5-7-|


1--5-5-5-5-5--7-7-7---5-5-5-5-5--7-7-7-|
2--7-7-7-5-7--9-9-9---7-7-7-5-7--9-9-9-|
3--7-7-7-5-7--9-9-9---7-7-7-5-7--9-9-9-|
4--7-7-7-5-7--9-9-9---7-7-7-5-7--9-9-9-|
5--5-5-5-5-5--7-7-7---5-5-5-5-5--7-7-7-|
6--5-5-5-5-5--7-7-7---5-5-5-5-5--7-7-7-|

Looking for the one
But you know you're somewhere else instead
I want to be the song
The song that you hear in your head

1-------------7---7----------7----7--------------7---7----------7---7-|
2------7---10--10---7---7-10---10---------9---10--10---9---9-10--10---|
3----7---7------------7-----------------9---9------------9------------|
4--9-----------------------------------9------------------------------|
5---------------------------------------------------------------------|
6---------------------------------------------------------------------|

But you take what you can get
'Cause it's all that you can find

1-------------7---7--------7----7-----7---7---7---7---7-|
2------8--10--10------8-10--10-----10--10--10--10--10---|
3----7--------------------------------------------------|
4--9----------------------------------------------------|
5-------------------------------------------------------|
6-------------------------------------------------------|

Oh, you know there's something more
But tonight, tonight, tonight

1--7-----7-----7-----7-----7----7----7-----|
2----7-----7-----7-----7-----7----7----7---|
3------7-----7-----7-----7-----7----7----7-|
4--9---------------------------------------|
5------------------------------------------|
6------------------------------------------|

Ah ah ah ah ah ah...

[Heavy distortion]

1----------------------------|
2----------------------------|
3----------------------------|
4----------------------------|
5----------------------------|
6--7-7--5-7-5-7-7--5-7-5-7-7-|

Boom cha
Boom cha
Discoth?que
Boom cha
Boom cha
Discoth?que
Boom cha
Boom cha
Discoth?que

zooman@exploit.it
Comments