U2 - Beautiful Day Chords & Tabs

 

Beautiful Day Chords & Tabs

U2 Chords & Tabs

Version: 2 Type: Tab 0 ratings
1 star 2 stars 3 stars 4 stars 5 stars
comments

Beautiful Day Tab

Chorus
e |--0---2---2---3----------------------------------------------------|
b |--2---3---3---0----------------------------------------------------|
g |--2---4---2---0----------------------------------------------------| 
d |--2---4---0---0----------------------------------------------------|
a |--0---2------------------------------------------------------------|
e |--------------3----------------------------------------------------|
[ Tab from: http://www.guitartabs.cc/tabs/u/u2/beautiful_day_tab_ver_2.html ]
Verse 
e |----2-----0----0---------2-----------------------------------------|
b |--2---3-----0----0----0-----2--------------------------------------| 
g |-------------------------------------------------------------------|
d |-------------------------------------------------------------------|
a |-------------------------------------------------------------------|
e |-------------------------------------------------------------------|

Pre Chorus 
e |----10----10-----10-------9-------9--------------------------------|
b |-10-----8-----7-------10-----10------------------------------------|
g |-------------------------------------------------------------------|
d |-------------------------------------------------------------------|
a |-------------------------------------------------------------------|
e |-------------------------------------------------------------------|
Comments