U2 - All I Want Is You Chords & Tabs

 

All I Want Is You Chords & Tabs

U2 Chords & Tabs

Version: 1 Type: Tab 0 ratings
1 star 2 stars 3 stars 4 stars 5 stars
comments

All I Want Is You Tab

U2, All I Want Is You.
Tabbed by Ilya, wretched@u2fan.net.
  
You say, you want...
E----0--0------2--2-------
B---2-2-------3-3---------  two repeat
G--2---2-2---2---2-2------
D-2---------0--------------
[ Tab from: http://www.guitartabs.cc/tabs/u/u2/all_i_want_is_you_tab.html ]
All the promises we made....
E----0--0------0--0-----
B---0-0-------1-1-------  two repeat
G--0---0-0---0---0-0----
D-2---------2-----------
When All, I want Is you...
E----3--3------2--2----0-0-0-0-0-0-0-2-3-2-0-2-2-
B---3-3-------3-3------2-2-0-2-0-2-2-3-3-3-3-3-3-
G--0---0-0---2---2-2---2-2-2-2-2-2-2-2-2-2-2-2-2-
D-0---------0----------2-2-2-2-2-2-2-0-0-0-0-0-0-
 
:: Ultimate Guitar Archive :: 
http://www.ultimate-guitar.com 

Comments