U2 - All Because Of You Chords & Tabs

 

All Because Of You Chords & Tabs

U2 Chords & Tabs

Version: 4 Type: Tab 0 ratings
1 star 2 stars 3 stars 4 stars 5 stars
comments

All Because Of You Tab

----------------------------------------------------------------------------
			     All Because of You-U2
----------------------------------------------------------------------------
Artist: U2
Song: All Because of You
Album: How To Dismantle An Atomic Bomb
Tabbed by: timmy3125
Tuning:Standard (EADGBE)

I recently saw U2 in concert and they put on the most amazing show i've ever seen. This 
a newer song of theirs from the album How To Dismantle An Atomic Bomb. I like this song 
lot and its one of my favorites on that album and I hope ya enjoy playin it! If you like
it, go ahead and rate.

INTRO PT. 1
Guitar 1
e|-12~----|
B|--------|
G|--------|
Tremolo picking with weird effects. This picking isn't exact but if you listen to the 
you should be able to get the picking.
e|-12-12-12-12-10-10-10-10-12-12--10-10-12-12-12-12-10-----|
B|---------------------------------------------------------|
G|---------------------------------------------------------|

Guitar 2
e|--12~---12-12-10-10----------------10-10-12-12~----|
B|-------------------12-12~----12-12-----------------|
G|---------------------------------------------------|
D|---------------------------------------------------|
A|---------------------------------------------------|
E|---------------------------------------------------|

INTRO PT. 2
Guitar 1 (Take off the effects) You can do a slide on the last notes or hit each chord 
whichever you prefer.
e|--------------------------------|
B|--------------------------------|
G|-------------7~-----------------|
D|--2--2---5---7~---5-7--5-7------|
A|--2--2---5---5~---5-7--5-7------|
E|--0--0---3--------3-5--3-5------|
Guitar 2 (same as intro accept for last part)          On 4th time through:
e|--12~---12-12-10-10----------------10-10-12-12~----||--------------------|
B|-------------------12-12~----12-12-----------------||-12h13p12/10--10/5--|
G|---------------------------------------------------||--------------------|
D|---------------------------------------------------||--------------------|
A|---------------------------------------------------||--------------------|
E|---------------------------------------------------||--------------------|

VERSE 1
Guitar 1:Once again you can slide on the last notes or not, doesn't matter.
                                      On 4th time play this.
e|----------------------------------||----------------------|
B|----------------------------------||----------------------|
G|----------7-7~--------------------||-----------777--------|
D|--22222---7-7~----5-7---5-7-------||---77777x--777--555---|
A|--22222---5-5~----5-7---5-7-------||---77777x--555--555---|
E|--00000-----------3-5---3-5-------||---55555x-------333---|
Play this entire thing twice through then go into the chorus

CHORUS (Both guitars play this)If this strumming isn't clear you can listen to the song 
its easy to pick out.
e|-------------------------------------------------------------|
B|-------------------------------------------------------------|
G|--77777x-------------77777x-------------77777x---------------|
D|--77777x-77-7-77777--77777x-77-7-77777--77777x-77-7-77777----|
A|--55555x-77-7-77777--55555x-77-7-77777--55555x-77-7-77777----|
E|---------55-5-55555---------55-5-55555---------55-5-55555----|

BRIDGE: (little part after the chorus) Exactly the same at the Intro pt. 2
Guitar 1
e|--------------------------------|
B|--------------------------------|
G|-------------7~-----------------|
D|--2--2---5---7~---5-7--5-7------|
A|--2--2---5---5~---5-7--5-7------|
E|--0--0---3--------3-5--3-5------|

Guitar 2                                               On 4th time through:
e|--12~---12-12-10-10----------------10-10-12-12~----||--------------------|
B|-------------------12-12~----12-12-----------------||-12h13p12/10--10/5--|
G|---------------------------------------------------||--------------------|
D|---------------------------------------------------||--------------------|
A|---------------------------------------------------||--------------------|
E|---------------------------------------------------||--------------------|
[ Tab from: http://www.guitartabs.cc/tabs/u/u2/all_because_of_you_tab_ver_4.html ]
Then Verse 2 is played the same way as Verse 1 except for one little 2nd guitar part 
you might not even notice. It comes in towards the end of the verse after the line "Some 
get squashed crossing the tracks..." and then again after "I'm not broke but you can see
the cracks..." It uses the same kind of effect as the 1st part of the intro.
e|-------------------|
B|-10-10-10-10-10~~~-|
G|-------------------|
Then to Chorus

After this chorus theres a shorter bridge that goes like this
Guitar 1 (play 2x)
e|--------------------------------|
B|--------------------------------|
G|-------------7~-----------------|
D|--2--2---5---7~---5-7--5-7------|
A|--2--2---5---5~---5-7--5-7------|
E|--0--0---3--------3-5--3-5------|
Guitar 2
e|--12~---12-12---12-12-10-10-------------------------|
B|---------------------------12-12---12h13p12-12-12---|
G|----------------------------------------------------|
D|----------------------------------------------------|
A|----------------------------------------------------|
E|----------------------------------------------------|

INTERLUDE PT. 1:
Guitar 2
e|-----------------------------------------------------------------------|
B|---14-15-14-10/7-7---14-15-14-10--10h12-10h12p10---14-15-14--10/7--7---|
G|-----------------------------------------------------------------------|
D|-----------------------------------------------------------------------|
A|-----------------------------------------------------------------------|
E|-----------------------------------------------------------------------|
Guitar 1
e|--------------------------------------------------|
B|--------------------------------------------------|
G|------------777------------777------------777-----|
D|--55555555--777---55555555-777---55555555-777-----|
A|--55555555--555---55555555-555---55555555-555-----|
E|--33333333--------33333333-------33333333---------|
Then for the next part, "Heeeeeeyyyy, yeaaaahh..." Guitar 1 still plays the same thing 
Guitar 2 plays through a couple times:
e|---0-22--0-22-0-2---0h2--0-2-0000--------|
B|-----------------------------------------|
G|-----------------------------------------|

INTERLUDE PART 2 (the slow part before the solo)
Guitar 1 (play 4x)
e|---------------------|
B|---------------------|
G|---------7-----------|
D|--5~~----7--7--2~----|
A|--5~~----5--7--2~----|
E|--3~~-------5--0~----|
Guitar 2                                               On 4th time through:
e|--12~---12-12-10-10----------------10-10-12-12~----||--------------------|
B|-------------------12-12~----12-12-----------------||-12h13p12/10--10/5--|
G|---------------------------------------------------||--------------------|
D|---------------------------------------------------||--------------------|
A|---------------------------------------------------||--------------------|
E|---------------------------------------------------||--------------------|

SOLO
Guitar 2 (play 1st section 3x)
e|------------------------------------------|
B|----8---8h10p8----8--8--10--10/12-12-12---|
G|--9---9---------9--9----------------------|
D|------------------------------------------|
A|------------------------------------------|
E|------------------------------------------|
At the end of the 3rd time through:
e|------------------14-14-14-14-14-14-14-14--15-15-------|
B|-15-15-15-17-17-17-------------------------------17----|
G|-------------------------------------------------------|

Guitar 1: Played underneath the solo
e|--------------------------------|
B|--------------------------------|
G|-------------7~-----------------|
D|--2--2---5---7~---5-7--5-7------|
A|--2--2---5---5~---5-7--5-7------|
E|--0--0---3--------3-5--3-5------|

VERSE 3 ("I'm alive, I'm being born...")
Guitar 1
e|--------------------------------|
B|--------------------------------|
G|-------------7~-----------------|
D|--2--2---5---7~---5-7--5-7------|
A|--2--2---5---5~---5-7--5-7------|
E|--0--0---3--------3-5--3-5------|

Then to the the last Chorus and end on this:
e|-----------|
B|-----------|
G|-----------|
D|--2~~~-----|
A|--2~~~-----|
E|--0~~~-----|

Song Order:
Intro Pt. 1
Intro Pt. 2
Verse 1
Chorus
Bridge
Verse 2
Chorus
Shortened Bridge
Interlude pt. 1
Interlude pt. 2
Solo
Verse 3
Chorus

Rock On.
Comments