U2 - All Because Of You Chords & Tabs

 

All Because Of You Chords & Tabs

U2 Chords & Tabs

Version: 1 Type: Bass Tab 0 ratings
1 star 2 stars 3 stars 4 stars 5 stars
comments

All Because Of You Bass Tab

   
Tabbed By : The Hawley Road Curse
e-mail: Jburne8@yahoo.com
feel free to email for corrections

Tuning:E A D G

This is how i play it at our gigs, so im pretty sure its right


Intro x4
G|--------------------------------------|
D|--------------------------------------|
A|---------5----------------------------|
E|0-0--3------3535----------------------|
-

Verse x2
G|--------------------------------------------------------------------------|
D|--------------------------------------------------------------------------|
A|---------3-3---------------3-3----------------3-3----------------5-5------|
E|-0--0-0-------3535-0--0-0-------3535--0--0-0-------3535--5-5555------3-33-|


Chorus x3
G|-----------------------|
D|-----------------------|
A|5-55555----------------|
E|--------5-5-5-55-------|


PreVerse x4
G|--------------------------------------|
D|--------------------------------------|
A|---------5----------------------------|
E|0-0--3------3535----------------------|

Verse x2
G|--------------------------------------------------------------------------|
D|--------------------------------------------------------------------------|
A|---------3-3---------------3-3----------------3-3----------------5-5------|
E|-0--0-0-------3535-0--0-0-------3535--0--0-0-------3535--5-5555------3-33-|


Chorus x3
G|-----------------------|
D|-----------------------|
A|5-55555----------------|
E|--------5-5-5-55-------|

[ Tab from: http://www.guitartabs.cc/tabs/u/u2/all_because_of_you_btab.html ]
PreVerse x2
G|--------------------------------------|
D|--------------------------------------|
A|---------5----------------------------|
E|0-0--3------3535----------------------|

Interlude x1
G|--------------------------------------------------------------------------|
D|--------------------------------------------------------------------------|
A|--------------------------------------------------------------------------|
E|-33333333--55--7777--33333333--55--7777--33333333--55--7777---------------|

G|--------------------------------------------------------------------------|
D|--------------------------------------------------------------------------|
A|-55555555------------55555555------------55555555~------------------------|
E|-----------55--3333------------55--3333-----------------------------------|

Bass Fill
G|-----------------------|
D|-8-7-5-3-5/7-5-3-2-----|
A|-----------------------|
E|-----------------------|

More Interlude x1
G|-----------------------------------------------------------------|
D|--------------------------------------------------  Those are 12-|s
A|------5/12--------------5/12--------------5/12-------------------|
E|-3~---------0~---3~-----------0~---3~-----------0~---------------|


Guitar Solo x4
G|--------------------------------------|
D|--------------------------------------|
A|---------5----------------------------|
E|0-0--3------3535----------------------|

Verse x4
G|--------------------------------------|
D|--------------------------------------|
A|---------5----------------------------|
E|0-0--3------3535----------------------|

Chorus/Outro x3
G|-----------------------|
D|-----------------------|
A|5-55555----------------|
E|--------5-5-5-55-------|
Comments