U2 - All Along The Watchtower Chords & Tabs

 

All Along The Watchtower Chords & Tabs

U2 Chords & Tabs

Version: 1 Type: Tab 0 ratings
1 star 2 stars 3 stars 4 stars 5 stars
comments

All Along The Watchtower Tab

Artist : U2
Song :   All along the watchtower (Text by Bob Dylan)
Album :  Rattle and Hum
Track :  5
Tuning:  1/2 Step down

Tabbed by : Phil


For the transcription I have used the live version , which you can hear on the 
Rattle and Hum Album

			U2 - All along the watchtower 
-----------------------------------------------------------------------

In the beginning there is a drumpart.
[ Tab from: http://www.guitartabs.cc/tabs/u/u2/all_along_the_watchtower_tab.html ]
Rhythm Guitar (The Edge):
(Play this Riff the whole song)
eb |-----0---0---3--1-1-1--1--3---|
Bb |-----1---1---3--1-1-1--1--3---|
Gb |-----2---2---4--2-2-2--2--4---|
Db |-----2---2---5--3-3-3--3--5---|
Ab |-----0---0---5--3-3-3--3--5---|
Eb |-----0---0---3--1-1-1--1--3---|

End:

eb |-----0---0---3--1-1-1--1--3---|
Bb |-----1---1---3--1-1-1--1--3---|
Gb |-----2---2---4--2-2-2--2--4---|
Db |-----2---2---5--3-3-3--3--5---|
Ab |-----0---0---5--3-3-3--3--5---|
Eb |-----0---0---3--1-1-1--1--3---|

and then

eb |----0~~~~~~~~~~~~~*--0~~*-----|
Bb |----1~~~~~~~~~~~~~*--1~~*-----|
Gb |----2~~~~~~~~~~~~~*--2~~*-----|
Db |----2~~~~~Drums~~~*--2~~*-----|
Ab |----0~~~~~~~~~~~~~*--0~~*-----|
Eb |----0~~~~~~~~~~~~~*--0~~*-----|

~ = let it ring
* = mute the chord
	

Well , it's a very easy song.

End 
Comments