U2 - 40 Chords & Tabs

 

40 Chords & Tabs

U2 Chords & Tabs

Version: 2 Type: Bass Tab 0 ratings
1 star 2 stars 3 stars 4 stars 5 stars
comments

40 Bass Tab

   
-----------------------------------------------------------------------------
                             "40" - U2
-----------------------------------------------------------------------------

Tabbed by: runorun
E-mail: runorun@yahoo.com

Tuning: 1/2 step down (Eb, Ab, Db, Gb)

This song sounds better with a pick. It sounds really good with one of the blue herdims
picks that The Edge uses.

The periods mark 16th notes. If you are having trouble getting the rhythm, put the
metronome away and listen to the song and play along. I just marked the 16th notes so you
could see how the notes come in. I find it way easier to just play with the song from 
the War CD and feel the rhythm.


Verses
    1 . . . 2 . . . 3 . . . 4 . . . 1 . . . 2 . . . 3 . . . 4 . . . x2
Gb|---9-----9-----9-----7-----7-7-6-----6-----7-----7---------------|
Db|-----------------------------------------------------------------|
Ab|-0-----0-----0-----0-----0---------0-----0-----0-----------------|
Eb|-----------------------------------------------------------------|
[ Tab from: http://www.guitartabs.cc/tabs/u/u2/40_btab_ver_2.html ]
Chorus
    1 . . . 2 . . . 3 . . . 4 . . . 1 . . . 2 . . . 3 . . . 4 . . . |
Gb|---9-----9-----9-----9---------11----11----11----11--------------|
Db|-----------------------------------------------------------------|
Ab|-0-----0-----0-----0---------0-----0-----0-----0-----------------|
Eb|-----------------------------------------------------------------|

    1 . . . 2 . . . 3 . . . 4 . . . 1 . . . 2 . . . 3 . . . 4 . . . |
Gb|---9-----9-----9-----9---------11----11----14----14--------------|
Db|-----------------------------------------------------------------|
Ab|-0-----0-----0-----0---------0-----0-----0-----0-----------------|
Eb|-----------------------------------------------------------------|



This is the variation that The Edge does once in awhile

    1 . . . 2 . . . 3 . . . 4 . . . 1 . . . 2 . . . 3 . . . 4 . . . x2
Gb|---9-----9-----9-----7-----7-7-6-----6-----7-----7---14141414----|
Db|-----------------------------------------------------------------|
Ab|-0-----0-----0-----0-----0---------0-----0-----0-----------------|
Eb|-----------------------------------------------------------------|

| /  slide up
| \  slide down
| h  hammer-on
| p  pull-off
| ~  vibrato
| +  harmonic
| x  Mute note
=============================================================================
Comments