U2 - 11 Oclock Tick Tock Chords & Tabs

 

11 Oclock Tick Tock Chords & Tabs

U2 Chords & Tabs

Version: 3 Type: Bass Tab 0 ratings
1 star 2 stars 3 stars 4 stars 5 stars
comments

11 Oclock Tick Tock Bass Tab

   
Tabbed By : rif raf
e-mail: 

Tuning:1/2

intro/main rif
G|-------------------------------------------------------------------------|
D|--------5--------5--------2--------2--------5--------5--------2-------2--|
A|-7-7-7----7-7-7----3-3-3----3-3-3----7-7-7----7-7-7----3-3-3-----3-3----3|
E|-------------------------------------------------------------------------|
[ Tab from: http://www.guitartabs.cc/tabs/u/u2/11_oclock_tick_tock_btab_ver_3.html ]
post chorus
G|-----7+---12---11-------7+---12---11------7+---12---11------7+-----------|
D|---7+-----0----0------7+-----0----0-----7+-----0----0-----7+----10-9-7---|
A|-7+-----------------7+----------------7+----------------7----------------|
E|-------------------------------------------------------------------------|

outro
G|-------------------------------------------------------------------------|
D|-5-5-5-5-5-5-5-5---------------------------------------------------------|
A|-----------------5-5-5-5-5-5-5-5-7-7-7-5-7-7-7-5-7-7-7-5-7-7-7-----------|
E|-------------------------------------------------------------------------|

G|-------------------------------------------------------------------------|
D|-------------------------------------------------------------------------|
A|----------5----5----7----------------------------------------------------|
E|-3----3-------------0----------------------------------------------------|

+  harmonic
Comments