Typecast - She Wont Understand Chords & Tabs

 

She Wont Understand Chords & Tabs

Typecast Chords & Tabs

Version: 1 Type: Tab

She Wont Understand Tab

   
#----------------------------------PLEASE NOTE---------------------------------#
#This file is the author's own work and represents their interpretation of the #
#song. You may only use this file for private study, scholarship, or research. #
#------------------------------------------------------------------------------#

hehe...

tabbed by: Cyril Santillan
title: She wont understand
Artist: Typecast
Album: Last Time


1st tab ko toh... senxa na kung magulo kase hndi ko kaya na hindi magulo..
maiintindihan nio yan kung papakinggan nyo...

e2 nah...



 |||INTRO

e|----------------------------------------|
B|----------------------------------------|
G|------5---------5---------5---------5---|
D|----5---5-----5---5-----5---5-----5---5-|   
A|--3---------3---------3---------3-------|
E|----------------------------------------|

e|----------------------------------------|
B|----------------------------------------|
G|------5---------5---------5---------5---|
D|----5---5-----5---5-----5---5-----5---5-|
A|--2---------2---------2---------2-------|
E|----------------------------------------|

e|----------------------------------------|
B|----------------------------------------|
G|------5---------5---------5---------5---|
D|----5---5-----5---5-----5---5-----5---5-|
A|----------------------------------------|
E|--5---------5---------5---------5-------|

e|----------------------------------------|
B|----------------------------------------|
G|------5---------5---------5---------5---|
D|----5---5-----5---5-----5---5-----5---5-|
A|----------------------------------------|
E|--3---------3---------3---------3-------|

    

#------------------------------TAKE NOTE-----------------------------------#
#STRUMMING NOT SHOWN STRUMMING NOT SHOWN STRUMMING NOT SHOWN STRUMMING NOT #
#N STRUMMING NOT SHOWN STRUMMING NOT SHOWN STRUMMING NOT SHOWN STRUMMING NO#
#------------------------------------------------------------------------------#



 |||VERSE

e|---------------------------------------|
B|---------------------------------------|
G|--55555------------------------55555---|
D|--55555------------------------55555---|
A|--33333------------------------22222---|
E|---------------------------------------|
       (am i boring you out...)	    (am i disturbing your pace...)


e|---------------------------------------|
B|---------------------------------------|
G|---------------------------------------|
D|--33333------------------------55555---|
A|--33333------------------------55555---|
E|--11111------------------------33333---|
       (did i break anything..)     (that would dripdown your sail...)


     


===========REPEAT NYO LANG.... pakinggan nyo kung san magbabago...=============






e|---------------------------------------------|
B|---------------------------------------------|
G|---------------------------------------------|
D|--77777------------------------------33333---| pakinggan nio na lng din 
A|--77777------------------------------33333---| ung lipat ng chord d2...
E|--55555------------------------------11111---|
       (i'll write all the things...)




 =====d2 sa part na toh...

 =====pakinggan nio na lng un mga lipat lipat badtrip d ko ma-explain eh...!


 |||
                                          \
e|---------------------------------------| \
B|---------------------------------------|  \
G|--55555---55555------------------------|   > P.M. 
D|--55555---55555---77777---555---333----|  /
A|--33333---22222---77777---555---333----| /
E|------------------55555---333---111----|/
  (im sorry for caring for you.....)


 ==(REPEAT LANG)===PAKINGGAN NIO NA LNG ULET!!=======

[ Tab from: http://www.guitartabs.cc/tabs/t/typecast/she_wont_understand_tab.html ]
        pgkatapos nio pakinggan pgdating nio sa chord C/B stop na kau...




 |||bagsakan nio lng netoh....
e|-----------|
B|-----------|
G|-----------|
D|--7---5----|
A|--7---5----|
E|--5---3----|
   (and it hurts falling for you...)



 |||CHORUS
e|-----------------------------------------|       
B|-----------------------------------------|
G|--5555---5555----------------------------|
D|--5555---5555---7777-------3333----------| (2X except ung last na chord) 
A|--3333---2222---7777-------3333----------|
E|----------------5555-------1111----------|

 >>e2 un ggwin sa last na chord
e|--------|
B|--------|
G|--------|
D|3--3----|
A|3--3----|
E|1--1----|






 |||VERSE

e|---------------------------------------|
B|---------------------------------------|
G|--55555------------------------55555---|
D|--55555------------------------55555---|
A|--33333------------------------22222---|
E|---------------------------------------|
       (you are breaking....)	    (you dont have a chance...)


e|---------------------------------------|
B|---------------------------------------|
G|---------------------------------------|
D|--33333------------------------55555---|
A|--33333------------------------55555---|
E|--11111------------------------33333---|
       (your words tear...)         (it falls all over me..)

      Repeat lNg ung chords...




 ===============pakinggan muli ng kayo ay tumama....=====


e|---------------------------------------------|
B|---------------------------------------------|
G|---------------------------------------------|
D|--77777------------------------------33333---| pakinggan din muli
A|--77777------------------------------33333---| 
E|--55555------------------------------11111---|
       (i'll write all the things...)




 |||CHORUS
e|-----------------------------------------|       
B|-----------------------------------------|
G|--5555---5555----------------------------|
D|--5555---5555---7777-------3333----------| (4X) 
A|--3333---2222---7777-------3333----------|
E|----------------5555-------1111----------|




 |||
                                          \
e|---------------------------------------| \
B|---------------------------------------|  \
G|--55555---55555------------------------|   > P.M. 
D|--55555---55555---77777---555---333----|  /
A|--33333---22222---77777---555---333----| /
E|------------------55555---333---111----|/
  (im sorry for caring for you.....)


e|--------------------------|               |------|
B|--------------------------|               |------|
G|--55555---55555-----------|  +P.M+ pa din |------|
D|--55555---55555---77777---|               |--5---|
A|--33333---22222---77777---|               |--5---|
E|------------------55555---|               |--3---|
  (im sorry.. and it hurts...)







LYRICS:
          am i boring you out? am i disturbing your pace?
did i break anything on you that would drip down your sail?
did I troubled your life? did I make you aware?
you've said you know it all and i do hope you're right.
i'll write all the things you are today,
but it won't be easy cause it will bother your way....
im sorry       for caring for you,
im sorry...and it hurts falling for you.
she wont understand, she puts her mind on what she knows,
she wont know anything, she wont know everything
You are breaking me out you dont have a chance too see,
your words tear a thousand pieces and it falls all over me.
can we make up for it? you wont make up for me.
you go on your way and listen to things that you want to hear.






END!


ahhmmm....

KoMents??? iowa_cyril_iowa@yahoo.com
Y!CHAT! iowa_cyril_iowa -----------> 16/m/qc


sana naintindihan nyo! ayos to! Mabuhay ang TYPECAST!
hi jamaica! hi DearAgony! hi bepren muMoi!!!