Typecast - Phoenix Chords & Tabs

 

Phoenix Chords & Tabs

Typecast Chords & Tabs

Version: 1 Type: Tab

Phoenix Tab

   
Bahala na po kaung humusga....
tab is from :

bandname : My Tragedy Valentine
from : Malabon ,pampano sa teacher's vill.

ang hirap nman nito 1st time lng nmin gumawa nito

Intro :
HARMONICS UNG NSA 19
e--15--------I
B--x----19---I
G--x---------I
D--x---------I
A------------I
E------------I

e---------5-2----------------5-2--------------------I
B------------3-2----------------3-2---5-------------I
G-----------------------------------2---------------I
D-4444\7------------4444\7--------------------------I
A-2222\5------------2222\7--------------------------I
E---------------------------------------------------I


e--------------------------------------------------------------------------I
B--------5h7---------------------------------------------------------------I
G------------4h6--2h4------------------------------------------------------I
D--44444---------------2h4-------------------------------------------------I
A--22222--------------------4----------------------------------------------I
E--------------------------------------------------------------------------I

e--------------------------------------------------------------------------I
B--------5h7---------------------------------------------------------------I
G------------4h6--2h4-------2----------------------------------------------I
D--44444---------------2h4-------------------------------------------------I
A--22222-------------------------------------------------------------------I
E--------------------------------------------------------------------------I

Verse:

i'll rise above the clouds

e---7------I
A---5------I
B----------IHarmonics to
G----------I
D----------I
A----------I
E----------I

G                        D
your voice kept me alive

i'll spread my wings and fly
e---7------I
A---5------I
B----------IHarmonics to
G----------I
D----------I
A----------I
E----------I

G
i've returned for you again my love

[ Tab from: http://www.guitartabs.cc/tabs/t/typecast/phoenix_tab.html ]
Refrain:
Em
i've kept all that i've gained
                   G
your smile and how your eyes shine
      Em
am i string enough to be with you again?
       G
if im not, i'll stretch my arms to hold you. ..

e-------------I
A---2-3-5-----I
B-------------I
G-------------I
D-------------I
A-------------I
E-------------I

Chorus:
D
im ready
        G
hold me tight once more
     Em
and slowly
        G                       D
we'll pick up the pieces we lost

e------------------------------22----------------]
A--------33---------55----------------------2-2--]
B------------------------------------------------]
G---4-4-4-----4-4-4------4-4-4------4-4-4--------]
D---2-2-2-----2-2-2------2-2-2------2-2-2--------]
E------------------------------------------------]


the battles i fought
           G              D
unruly but won gloriously

im your lord knight,i've gained so much
e---7------I
A---5------I
B----------IHarmonics to
G----------I
D----------I
A----------I
E----------I

but still i needyou here

Refrain:
Em
i've kept all that i've gained
                   G
your smile and how your eyes shine
      Em
am i string enough to be with you again?
       G
if im not, i'll stretch my arms to hold you. ..

Chorus:
D
im ready
        G
hold me tight once more
     Em
and slowly
        G                       D
we'll pick up the pieces we lost

e------------------------------22----------------]
A--------33---------55----------------------2-2--]
B------------------------------------------------]
G---4-4-4-----4-4-4------4-4-4------4-4-4--------]
D---2-2-2-----2-2-2------2-2-2------2-2-2--------]
E------------------------------------------------]

Marami poh yan sabayan nyo nlng thx sa supporta.........
Invite nyo kmi sa friendster:

dryst31@yahoo.com-------Base
blitzer003@yahoo.com----Guitar
devirochi_003@yahoo.com-Drums 
sweetjane003@yahoo.com---Vocalist
maryjoy_eunice@yahoo.com---Guitar 

my_tragedy_valentine@yahoo.com