Typecast - Last Time Chords & Tabs

 

Last Time Chords & Tabs

Typecast Chords & Tabs

Version: 2 Type: Tab 0 ratings
1 star 2 stars 3 stars 4 stars 5 stars
comments

Last Time Tab

standard tuning
metal zone na effects ginamit dito.

intro:mejo mabagal lng sa part na to.

E--------------------------------------------------------|
B-----9-10--9-------9-10--9------9-10--9-------9-10--9---|
G------9-----9-------9-----9-------9----9-------9-----9--|
D-------------9-------------9------------9-------------9-|
A--7-------------7-------------6------------6------------|
E--------------------------------------------------------|


E-------------------------------------------------------|
B-----9-10--9-----9-10--9--------9-10--9------9~--------|
G------9-----9-----9-----9--------9-----9-----9~--------|
D-------------9-----------9--------------9----9~--------|
A---------------------------------------------7~--------|
E--9-----------9------------7---------------------------|

eto sunod...paulit ulit lng yan..
E-------------------------------------------------------|
B-------------------------------------------------------|
G--9-0-0-9-0-0-9-0-0-9----------------------------------|
D--9-0-0-9-0-0-9-0-0-9----------------------------------|
A--7-0-0-7-0-0-7-0-0-7----------------------------------|
E----0-0---0-0---0-0------------------------------------|


tpos eto...
E-------------------------------------------------------|
B-------------------------------------------------------|
G--9-9-9-9--9/11--11/13--13--13/14/13-------------------|
D--x-x-x-x--x/x---x-/x---x---x-/x-/x--------------------|
A--7-7-7-7--7/9---9-/11--11--11/12/11-------------------|
E-------------------------------------------------------|
tapos intro uli...pero mabilis na ung pagkakatugtog...
paki intindi nyo nlng ah,,,

[ Tab from: http://www.guitartabs.cc/tabs/t/typecast/last_time_tab_ver_2.html ]
E---------------------------------------------------------|
B-----9-10--9-------9-10--9------9-10--9-------9-10--9----|
G------9-----9-------9-----9-------9----9-------9-----9---|
D-------------9-------------9------------9-------------9--|
A--7-------------7-------------6------------6-------------|
E---------------------------------------------------------|


E----------------------------------------------------------|
B-----9-10--9-----9-10--9--------9-10--9------9~-----------|
G------9-----9-----9-----9--------9-----9-----9~-----------|
D-------------9-----------9--------------9----9~-----------|
A---------------------------------------------7~-----------|
E--9-----------9------------7------------------------------|
						 she said its over,,,,

E-----------|---------------------------------------------------|
B-----------|---------------------------------------------------|
G--9-0-0----|---9-9-9-9-9-9-9-9-9-9-9-9-9-9-9-9-9-9-9-9-9-9-9---|
D--9-0-0----|---x-x-x-x-x-x-x-x-x-x-x-x-x-x-9-9-9-9-9-9-9-9-9---|
A--7-0-0-9--|---7-7-7-7-7-7-7-7-6-6-6-6-6-6-x-x-x-x-x-x-x-x-x---|
E--------7--|-------------------------------9-9-9-9-7-7-7-7-7---|
		she said it honestly..........

E------------------------------------------------------|
B------------------------------------------------------|
G------------------------------------------------------|
D--7-7-7-7-7-7-7-7--------------9-9-9-9-9-9------------|
A--7-7-7-7-7-7-7-7--------------9-9-9-9-9-9------------|
E--5-5-5-5-5-5-5-5--------------7-7-7-7-7-7------------|
   i never take advantage.......and i dont have the guts...

E-------------------------------------------------|
B-------------------------------------------------|
G---------9-9-9---9-9-9--9-9-9-9-----9-9-9-9-9----|
D---------x-x-x---x-x-x--9-9-9-9-----9-9-9-9-9----|
A---------7-7-7---6-6-6--x-x-x-x-----x-x-x-x-x----|
E------------------------9-9-9-9-----7-7-7-7-7----|
          she.....drop...out.........she's leavin me...


oh,,balik na sa intro...un,,,paki intindi nlng ah,,,
email nio ko....kng may mali,,,reyianc@yahoo.com
Comments