Typecast - Last Time Chords & Tabs

 

Last Time Chords & Tabs

Typecast Chords & Tabs

Version: 1 Type: Tab 0 ratings
1 star 2 stars 3 stars 4 stars 5 stars
comments

Last Time Tab

artist: tYpEcAsT  3
song: LAST TIME
gawa ni:aNdoY 23


INTRO

|-----------------| 8x
|--------11-------|
|---9-14----14-9--|
|-----------------|
|-----------------|
|-----------------|

|----------------------------------|
|----------------------------------|
|-999999999999999999111111131311---|
|-9999999999990000000 0 0 0 0 0----|
|-7777777777777777779 9 9 11119----|
|----------------------------------|

verse

bass
|----------------------|
|----------------------|
|-7777-6666-4444-2222--|
|----------------------|

after bass guitar

|-----------------------------|
|-----------------------------|
|-9-------11-----13-----11----|
|-9 4x----11 4x--13 4x--11 4x-|
|-7-------9------11-----9-----|
|-----------------------------|

chorus

do the intro ung lead ciaka ung bass sa verse

refrain

|----------------|
|----------------|
|----------------|
|--777---999-----|
|--777---999-----|
|--555---777-----|

solo
[ Tab from: http://www.guitartabs.cc/tabs/t/typecast/last_time_tab.html ]
|-------------------------------------------------------------------|
|-------------------------------------------------------------------|
|--66669999222444--66669999222444---6666999911111311999966644422449-|
|----------222-------------222--------------------------------22----|
|--44447777---222--44447777---222---444477779-9-11-97777444222--227-|
|-------------------------------------------------------------------|

chorus pero tahimik na
ung lead pa putol putol na basta pakinggan nyo na lng ung sa cd magegets nyo rin


LAST TIME

she said its over
and i dont stand a chance
she said it honestly
i wish that she lie

her words said it all
minus me, minus the actions
any understanding
i wish that she does

and i dont take advantage 
and i dont have the guts
she dropped me out
and she's leaving me

its the last time did i push too hard
you didnt mean to make me cry but that ok who's wrong
and understanding you'll never understand
what you think and what i feell it doesnt make any sense
Comments