Typecast - Infatuation Is Always There Chords & Tabs

 

Infatuation Is Always There Chords & Tabs

Typecast Chords & Tabs

Version: 3 Type: Tab 0 ratings
1 star 2 stars 3 stars 4 stars 5 stars
comments

Infatuation Is Always There Tab

The Infatuation Is Always There
Typecast
Tabbed by: Enzo Vallejo Flores

i2 first tab na pinost ko sa ultimate... tama 2!!! 99.7% akong cgurado na tama 2ng tab 
2! pakinggan nyo na lng ung kanta... sobrang laking tulong bsta pakinggan nyo un kanta..
may napansin kaung mali dun sa tab, pakinggan nyong mabuti... cgurado tlaga ko d2...
imposibleng mgkamali ako... comments/suggestions... twelveblackmangoes_e@yahoo.com

Standard Tuning

---> DISTORT.

e------------------------------------------|
B------------------------------------------|
G----------5-5-5---4-5-4/9---4-5-4/9-------|
D--3-3-3---5-5-5---X-X-X-X---X-X-X-X-------|
A--3-3-3---3-3-3---2-3-2/7---2-3-2/7-------|
E--1-1-1-----------------------------------|


e------------------------------------------|
B------------------------------------------|
G----------5-5-5---4-5-4/9---4-5-4-5-4-----|
D--3-3-3---5-5-5---X-X-X-X---X-X-X-X-X-----|
A--3-3-3---3-3-3---2-3-2/7---2-3-2-3-2-----|
E--1-1-1-----------------------------------|


e-------------------------------------------------------------------------|
B-------------------------------------------------------------------------|
G----4-5-----4-5---5---4-5-----4-5---5-----4-5-----4-5---5---4-5-----4-5--|
D-------------------------------------------------------------------------|
A--3-----3-3-----3---2-----2-2-----2-----0-----0-0-----0---0-----0-0------|
E-------------------------------------------------------------------------|

e--------------------------------------------------------------------------|
B--------------------------------------------------------------------------|
G----4-5-----4-5---5---4-5-----4-5--7-5-4-5---4-5----4-5---5---4-5-----4-5-|
D--------------------------------------------------------------------------|
A--3-----3-3-----3---2-----2-2--------------0-----0-0----0---0-----0-0-----|
E--------------------------------------------------------------------------|


>>> 2 times din itong part na 2...
e---------------------3-----------------------|
B-------------------5-------------------------|
G--5--------------5---------------------------|
D--5--5--7------7---------5-------------------|
A--3--2--7----7-----------5-------------------|
E--------5--5-------------3-------------------|


e------------------------------------------|
B------------------------------------------|
G----------5-5-5---4-5-4/9---4-5-4/9-------|
D--3-3-3---5-5-5---X-X-X-X---X-X-X-X-------|
A--3-3-3---3-3-3---2-3-2/7---2-3-2/7-------|
E--1-1-1-----------------------------------|

e------------------------------------------|
B------------------------------------------|
G----------5-5-5---4-5-4/9---4-5-4-5-4-----|
D--3-3-3---5-5-5---X-X-X-X---X-X-X-X-X-----|
A--3-3-3---3-3-3---2-3-2/7---2-3-2-3-2-----|
E--1-1-1-----------------------------------|


>>> 2 times ulit...
e---------------------3-----------------------|
B-------------------5-------------------------|
G--5--------------5---------------------------|
D--5--5--7------7---------5-------------------|
A--3--2--7----7-----------5-------------------|
E--------5--5-------------3-------------------|


e------------------------------------------|
B------------------------------------------|
G----------5-5-5---4-5-4/9---4-5-4/9-------|
D--3-3-3---5-5-5---X-X-X-X---X-X-X-X-------|
A--3-3-3---3-3-3---2-3-2/7---2-3-2/7-------|
E--1-1-1-----------------------------------|

e------------------------------------------|
B------------------------------------------|
G----------5-5-5---4-5-4/9---4-5-4-5-4-----|
D--3-3-3---5-5-5---X-X-X-X---X-X-X-X-X-----|
A--3-3-3---3-3-3---2-3-2/7---2-3-2-3-2-----|
E--1-1-1-----------------------------------|
[ Tab from: http://www.guitartabs.cc/tabs/t/typecast/infatuation_is_always_there_tab_ver_3.html ]

>>> 2 times ulit. pero subukan nyo na lng sumabay sa timing pag sa chorus na 2... iba 
timing dito sa part na 2 eh...

e---------------------3-----------------------|
B-------------------5-------------------------|
G--5--------------5---------------------------|
D--5--5--7------7---------5-------------------|
A--3--2--7----7-----------5-------------------|
E--------5--5-------------3-------------------|

>>> after chorus.

e-------------------------------------------------------------------------|
B-------------------------------------------------------------------------|
G----4-5-----4-5---5---4-5-----4-5---5-----4-5-----4-5---5---4-5-----4-5--|
D-------------------------------------------------------------------------|
A--3-----3-3-----3---2-----2-2-----2-----0-----0-0-----0---0-----0-0------|
E-------------------------------------------------------------------------|

e--------------------------------------------------------------------------|
B--------------------------------------------------------------------------|
G----4-5-----4-5---5---4-5-----4-5--7-5-4-5---4-5----4-5---5---4-5-----4-5-|
D--------------------------------------------------------------------------|
A--3-----3-3-----3---2-----2-2--------------0-----0-0----0---0-----0-0-----|
E--------------------------------------------------------------------------|

>>> 2 times na nman... sabayan nyo ung kanta ah...
e---------------------3-----------------------|
B-------------------5-------------------------|
G--5--------------5---------------------------|
D--5--5--7------7---------5-------------------|
A--3--2--7----7-----------5-------------------|
E--------5--5-------------3-------------------|


e------------------------------------------|
B------------------------------------------|
G----------5-5-5---4-5-4/9---4-5-4/9-------|
D--3-3-3---5-5-5---X-X-X-X---X-X-X-X-------|
A--3-3-3---3-3-3---2-3-2/7---2-3-2/7-------|
E--1-1-1-----------------------------------|

e------------------------------------------|
B------------------------------------------|
G----------5-5-5---4-5-4/9---4-5-4-5-4-----|
D--3-3-3---5-5-5---X-X-X-X---X-X-X-X-X-----|
A--3-3-3---3-3-3---2-3-2/7---2-3-2-3-2-----|
E--1-1-1-----------------------------------|


>>> 4 times na itong part na 2... mlapit na matapos ung kanta dito.. sabayan niyo na lng...
e---------------------3-----------------------|
B-------------------5-------------------------|
G--5--------------5---------------------------|
D--5--5--7------7---------5-------------------|
A--3--2--7----7-----------5-------------------|
E--------5--5-------------3-------------------|


e-------------------------------------------------------------------------|
B-------------------------------------------------------------------------|
G----4-5-----4-5---5---4-5-----4-5---5-----4-5-----4-5---5---4-5-----4-5--|
D-------------------------------------------------------------------------|
A--3-----3-3-----3---2-----2-2-----2-----0-----0-0-----0---0-----0-0------|
E-------------------------------------------------------------------------|

e--------------------------------------------------------------------------|
B--------------------------------------------------------------------------|
G----4-5-----4-5---5---4-5-----4-5--7-5-4-5---4-5----4-5---5---4-5-----4-5-|
D--------------------------------------------------------------------------|
A--3-----3-3-----3---2-----2-2--------------0-----0-0----0---0-----0-0-----|
E--------------------------------------------------------------------------|


>>> End on...
e----------|
B----------|
G----5-----|
D----5-----|
A----3-----|
E----------|

un lang. tama yan!
Comments