Typecast - Infatuation Is Always There Chords & Tabs

 

Infatuation Is Always There Chords & Tabs

Typecast Chords & Tabs

Version: 2 Type: Tab 0 ratings
1 star 2 stars 3 stars 4 stars 5 stars
comments

Infatuation Is Always There Tab

   
Song:the infatuation is always there
Band:typecast
tabbed by:Adrian Leaņo
pkinggan nyo muna ung song bgo i try 2....i2 n ung pnaka tamang tab ng infatuation..hehehe...\m/

Drop d Tuning(with distortion)

intro/chorus:
E------------------------------------------------|x2
B------------------------------------------------|
G--------5-5-5-4-4-4----4-5-4/9-9-----4-5-4/9-9--|
D--3x6---x-x-x-x-x-x----x-x-x/x-x-----x-x-x/x-x--|
A--3-----3-3-3-2-2-2----2-3-2/7-7-----2-3-2/7-7--|
D--3---------------------------------------------|
  
E------------------------------------------------|
B------------------------------------------------|
G--------5-5-5-4-4-4----4-5-4/9-9-----4-5-4-4-4--|
D--3x6---x-x-x-x-x-x----x-x-x/x-x-----x-x-x-x-x--|
A--3-----3-3-3-2-2-2----2-3-2/7-7-----2-3-2-2-2--|
D--3---------------------------------------------|

then
(d me sure d2)
E---------------
B---------------
G-------4~------
D---33----------
A---33----------
D---33----------
pm  ..

Interlude(fav. part..hehehe)
E-------------------------------------------------------|
B-------------------------------------------------------|
G------4-5------4-5------4-------4-5------4-5-7-5-4-----|
D--33-------33------33-------55-------55------------5---|
A--33-------33------33-------55-------55----------------|
D--33-------33------33-------55-------55----------------|
pm ..       ..      ..       ..       ..

E--------------------------------------------------|
B-----4-5-----4-5-----5------4-5-----4-5-6-5-------|
G-----4-5-----4-5-----5------4-5-----4-5-5-5-------|
D-00------00-------00----00------00----------------|
A-00------00-------00----00------00----------------|
D-00------00-------00----00------00----------------|
pm..      ..       ..    ..      ..
[ Tab from: http://www.guitartabs.cc/tabs/t/typecast/infatuation_is_always_there_tab_ver_2.html ]
verse:
i understand...........to say.............i am leaving 
E----------------------------------------------------|
B----------------------------------------------------|
G-5~----------5~-----------------9-------------------|
D-5~----------5~---------------7--------------5555~--|
A-3~----------2~--------------7---------------5555~--|
D----------------------------7----------------5555~--|
...dont walk away.........there...............you...
E----------------------------------------------------|
B----------------------------------------------------|
G-5~----------5~----------------9--------------------|
D-5~----------5~---------------7--------------5555~--|
A-3~----------2~--------------7---------------5555~--|
D----------------------------7----------------5555~--|

then

E-------------------------------------------------------|
B-------------------------------------------------------|
G---------------5-5-5-4-4-4----4-5-4/9-9-----4-5-4/9-9--|
D--3-3-3-3-3-3--x-x-x-x-x-x----x-x-x/x-x-----x-x-x/x-x--|
A--3-3-3-3-3-3--3-3-3-2-2-2----2-3-2/7-7-----2-3-2/7-7--|
D--3-3-3-3-3-3------------------------------------------|

verse
..words.....important......smile......you
E---------------------------------------------------------|
B---------------------------------------------------------|
G-5-5-5-5-5-5-5-5-5-----------9---------------------------|
D-5-5-5-5-5-5-5-5-5----------7---------5555~--------------|
A-3-3-3-3-3-2-2-2-2---------7----------5555~--------------|
D--------------------------7-----------5555~--------------|
 yearning...getting.........numb.......hope u like me
E---------------------------------------------------------|
B---------------------------------------------------------|
G-5-5-5-5-5-5-5-5-5-----------9---------------------------|
D-5-5-5-5-5-5-5-5-5----------7---------5555~--------------|
A-3-3-3-3-3-2-2-2-2---------7----------5555~--------------|
D--------------------------7-----------5555~--------------|

interlude

too....
E-------------------------------------------------------|
B-------------------------------------------------------|
G------4-5------4-5------4-------4-5------4-5-7-5-4-----|
D--33-------33------33-------55-------55------------5---|
A--33-------33------33-------55-------55----------------|
D--33-------33------33-------55-------55----------------|
pm ..       ..      ..       ..       ..

E--------------------------------------------------|
B-----4-5-----4-5-----5------4-5-----4-5-6-5-------|
G-----4-5-----4-5-----5------4-5-----4-5-5-5-------|
D-00------00-------00----00------00----------------|
A-00------00-------00----00------00----------------|
D-00------00-------00----00------00----------------|
Comments