Typecast - Infatuation Is Always There Chords & Tabs

 

Infatuation Is Always There Chords & Tabs

Typecast Chords & Tabs

Version: 1 Type: Tab 0 ratings
1 star 2 stars 3 stars 4 stars 5 stars
comments

Infatuation Is Always There Tab

the infatuation is always there
typecast
tabbed by: Rey Ian Cabanganan(reyianc@yahoo.com)

standard tuning
metal zone na effects ginamit dito...

pakinggan maiige ung song para makarelate..hehe..pakiintindi nlng.

intro/chorus:
E-------------------------------------------------------|
B-------------------------------------------------------|
G---------------5-5-5-4-4-4----4-5-4/9-9-----4-5-4/9-9--|
D--3-3-3-3-3-3--x-x-x-x-x-x----x-x-x/x-x-----x-x-x/x-x--|
A--3-3-3-3-3-3--3-3-3-2-2-2----2-3-2/7-7-----2-3-2/7-7--|
E--1-1-1-1-1-1------------------------------------------|
  ............2 times to..............................
 tapos eto...
E-------------------------------------------------------|
B-------------------------------------------------------|
G---------------5-5-5-4-4-4----4-5-4/9-9-----4-5-4-4-4--|
D--3-3-3-3-3-3--x-x-x-x-x-x----x-x-x/x-x-----x-x-x-x-x--|
A--3-3-3-3-3-3--3-3-3-2-2-2----2-3-2/7-7-----2-3-2-2-2--|
E--1-1-1-1-1-1------------------------------------------|

 sunod to sa intro..up and down strokes gamitin sa pg ppluck..
E-------------------------------------------------------|
B-------------------------------------------------------|
G------4-5------4-5------5-------4-5------4-5-7-5-4-----|
D-0-0------0-0------0-0-----0-0------0-0-----------5----|
A-0-0------0-0------0-0-----0-0------0-0----------------|
E-0-0------0-0------0-0-----0-0------0-0----------------|

E-------------------------------------------------------|
B------4-5------4-5------5-------4-5------4-5-6-5-------|
G------5-5------5-5------5-------5-5------5-5-5-5-------|
D-0-0------0-0-------0-0----0-0------0-0----------------|
A-0-0------0-0-------0-0----0-0------0-0----------------|
E-0-0------0-0-------0-0----0-0------0-0----------------|
[ Tab from: http://www.guitartabs.cc/tabs/t/typecast/infatuation_is_always_there_tab.html ]
verse:
E----------------------------------------------------|
B---------------------------------5------------------|
G-5~----------5~-----------------5-------------------|2 times din to.
D-5~----------5~------------7---7----------5-5-5-5---|
A-3~----------2~------------7--7-----------5-5-5-5---|
E---------------------------5-5------------3-3-3-3---|
  i understand......... to say............i am leaving.
sunod to...
E-------------------------------------------------------|
B-------------------------------------------------------|
G---------------5-5-5-4-4-4----4-5-4/9-9-----4-5-4/9-9--|
D--3-3-3-3-3-3--x-x-x-x-x-x----x-x-x/x-x-----x-x-x/x-x--|
A--3-3-3-3-3-3--3-3-3-2-2-2----2-3-2/7-7-----2-3-2/7-7--|
E--1-1-1-1-1-1------------------------------------------|
  at you....i'll just look at you

tapos eto naman...
E----------------------------------------------------------|
B-------------------------------5--------------------------|
G-5-5-5-5-5-5-5-5-5------------5---------------------------|
D-5-5-5-5-5-5-5-5-5-7-7-7-7---7--5-5-5-5-------------------|
A-3-3-3-3-3-2-2-2-2-7-7-7-7--7---5-5-5-5-------------------|
E-------------------5-5-5-5-5----3-3-3-3-------------------|
 words are not important smiles are all i need from you the yearning,
 it's getting stronger im  dumb...i hope you like me too

sunod to jan..
E-------------------------------------------------------|
B-------------------------------------------------------|
G------4-5------4-5------5-------4-5------4-5-7-5-4-----|
D-0-0------0-0------0-0-----0-0------0-0-----------5----|
A-0-0------0-0------0-0-----0-0------0-0----------------|
E-0-0------0-0------0-0-----0-0------0-0----------------|

E-------------------------------------------------------|
B------4-5------4-5------5-------4-5------4-5-6-5-------|
G------5-5------5-5------5-------5-5------5-5-5-5-------|
D-0-0------0-0-------0-0----0-0------0-0----------------|
A-0-0------0-0-------0-0----0-0------0-0----------------|
E-0-0------0-0-------0-0----0-0------0-0----------------|

ung ibang parts ng song inuulit nlng kya tignan nio nlng dito..ok? piz.
pakiintindi nlng po. salamat!
ok ba? kng mali o panget, email nio ko..reyianc@yahoo.com
mabuhay lahat ng rakista. mabuhay lahat ng tambay sa villarica..
www.typecast.tk
hi ingrid!!!!
Comments