Typecast - Forget Chords & Tabs

 

Forget Chords & Tabs

Typecast Chords & Tabs

Version: 1 Type: Tab 0 ratings
1 star 2 stars 3 stars 4 stars 5 stars
comments

Forget Tab

   
Band:Typecast
Song:Forget
Tabbed by:Adrian(adrianl_214@hotmail.com)15 lng pow me!!

1st tym kong gumawa ng tab kya pag pasensyahan nyo n kung medyo mgulo....pro cgurado 
tama 2...mga 90% accurate..hehehe...
uu nga pla dun s my mga friendster jan add nyo koh!!

Intro

(Strumming pattern not shown)
  C Am  F  Fm
E-------------------------------------|
B----1--------------------------------|
G-5--2--2--1--------------------------|
D-5--2--3--3--------------------------|
A-3-----3--3--------------------------|
E-------1--1--------------------------|

verse

i remember......
(Strumming pattern not shown)
  C Am  F  Fm
E-------------------------------------| x2
B----1--------------------------------|
G-5--2--2--1--------------------------|
D-5--2--3--3--------------------------|
A-3-----3--3--------------------------|
E-------1--1--------------------------|

Bridge?
i guess its tym....
(pki intindi nlang....2 ung chords...Em-Fm-Gm-Cm-Bm)
E-------------------|
B-------------------|
G-------------------|
D-22-33-55-54-------|
A-22-33-55-32-------|
E-00-11-33----------|
[ Tab from: http://www.guitartabs.cc/tabs/t/typecast/forget_tab.html ]
verse
i wear the costume........
(Strumming pattern not shown)
  C Am  F  Fm
E-------------------------------------| x2
B----1--------------------------------|
G-5--2--2--1--------------------------|
D-5--2--3--3--------------------------|
A-3-----3--3--------------------------|
E-------1--1--------------------------|

Bridge?
beautiful.....
(pki intindi nlang....2 ung chords...Em-Fm-Gm-Cm-Bm)
E-------------------|
B-------------------|
G-------------------|
D-22-33-55-54-------|
A-22-33-55-32-------|
E-00-11-33----------|

verse
break my heart....
(Strumming pattern not shown)
  C Am  F  Fm
E-------------------------------------| x2
B----1--------------------------------|
G-5--2--2--1--------------------------|
D-5--2--3--3--------------------------|
A-3-----3--3--------------------------|
E-------1--1--------------------------|

Ends on
E----
B----
G-5~-
D-5~-
A-3~-
E----

Tapos!!!!

uu nga pla dun s chorus my pick slide...
next tab koh..infatuation,she wont understand,february,last time tpi another minute 
ten....kso tinatamad me gumawa kya mejo mtatagalan un!!
mwahahaha.....pti ung mga my alam ng mga tabs ng songz ng typecast pki post!!....asteg 
typecast!!\m/

ung lyrics meron s web site nila....www.typecastmusic.org...
Comments