Typecast - Dorothy Chords & Tabs

 

Dorothy Chords & Tabs

Typecast Chords & Tabs

Version: 1 Type: Tab 0 ratings
1 star 2 stars 3 stars 4 stars 5 stars
comments

Dorothy Tab

typecast-dorothy
tabbed by:andres castillo"OLPS"

"it was saturday......"
e------|
a------|
d--6---|
b--6---|
g--4---|
e------|
   *

"and i'm waiting for my friends...."

-----|
-----|
-----|
--3--|
--3--|
--1--|
  *

"but then you came...."

-----|
-----|
-----|
--4--|
--4--|
--2--|
  *

"and you dazzled...."

-----|
-----|
-----|
--4--|
--4--|
--2--|

(bibigay k lang chords kau n bhla sa strumming......)
"then i thought i would approach you but....."

----------------|
----------------|
--6-------------|
--6----3----4---|
--4----3----4---|
-------1----2---|

"and i know i can never skate the way he does...."
[ Tab from: http://www.guitartabs.cc/tabs/t/typecast/dorothy_tab.html ]
------------------------|
------------------------|
--3---------6-----------|
--3----4----6----6------|
--1----4----4----6------|
-------2---------4------|


"i was playing my guitar when you pass by..."

----------------|
----------------|
--6-------------|
--6----3----4---|
--4----3----4---|
-------1----2---|
  *    *    *

"and then you sat infront of me....."

----------------|
----------------|
--6-------------|
--6----3----4---|
--4----3----4---|
-------1----2---|

"i'm a little older but i feel so young...."

---------------------|
---------------------|
--6---------3--------|
--6----4----3----6---|  (2x)
--4----4----1----6---|
-------2---------4---|


end in

------------------|
------------------|
---------6--------|
--(6)----6--------|
--(6)----4--------|
--(4)-------------|

wakas


nota: ah e kpa ko lng to ng 20 min. bka madaming mali at tsaka 1st time ko gumawa ng 
e sori kung madaming mali......
Comments