Typecast - Assertion Chords & Tabs

 

Assertion Chords & Tabs

Typecast Chords & Tabs

Version: 3 Type: Tab

Assertion Tab

   
Assertion by Typecast

Tabbed by: Czerald G. Guevarra - biboy_0916@yahoo.com
Tuning	 : Standard
Legend	 : / - slide
	   h - hammer on
	   p - pull off
	    - palm mute
	   x - mute
         [1] - guitar #1
         [2] - guitar #2

(Distortion)
INTRO:
[1]
e||-----------------------------------------|
B||-----------------------------------------|
G||--------0------0-------0------0----------|	(2x)
D||------2--22--2--22-2-2--22--2------------|
A||------------------0-0-0---00-0-----------|
E||-00011-1---11-1--------------------------|

[1]
e||------------------------------------------------------------------------|
B||------------------------------------------------------------------------|
G||-----------------555544444444444444-55555-77-99-1010-99-77-444444444444-|
D||222-333333333333--------------------------------------------------------|
A||222-333333333333-333322222222222222-33333-55-77--8-8-77-55-222222222222-|
E||000-111111111111--------------------------------------------------------|

[2]
e||-----------------------------------------------------------------|
B||-----------------------------------------------------------------|
G||--------------------222222222222--------------------222222222222-|
D||-222-33333333333333-222222222222-222-33333333333333-222222222222-|
A||-222-33333333333333-000000000000-222-33333333333333-000000000000-|
E||-000-11111111111111--------------000-11111111111111--------------|

VERSE1:
[1]	  Unexplained sight...
e||-----------------------------------------------------------------|
B||-----------------------------------------------------------------|
G||-----------------------------------------------------------------|
D||-222-33333333333333-2222222222222h32-33333333333333-222222222222-|
A||-----------------------------------------------------------------|
E||-----------------------------------------------------------------|

[2]
e||-----------------------------------------------------------------|
B||-----------------------------------------------------------------|
G||--------------------222222222222--------------------222222222222-|
D||-222-33333333333333-222222222222-222-33333333333333-222222222222-|
A||-222-33333333333333-000000000000-222-33333333333333-000000000000-|
E||-000-11111111111111--------------000-11111111111111--------------|

[1] & [2] Impulsive scene...
e||------------------------------------------|
B||------------------------------------------|
G||------------------------------------------|
D||-222-333x-3333333x-3333-777x-7777777x-777-|
A||-222-333x-3333333x-3333-777x-7777777x-777-|
E||-000-333x-1111111x-1111-555x-5555555x-555-|

REFRAIN:
[1]				[2]
e||---------------------|	e||---------------------|
B||---------------------|	B||---------------------|
G||---------------------|	G||---------------------|
D||-------2-----------2-|	D||-------2-----------2-|
A||-3--5--0--3--3--2--0-|	A||-3--2--0--3--3--2--0-|
E||----------1----------|	E||----------1----------|

[1] Anyway...
e||------------------------------------------------------------------------|
B||------------------------------------------------------------------------|
G||-----------------555544444444444444-55555-77-99-1010-99-77-444444444444-|
D||222-333333333333--------------------------------------------------------|
A||222-333333333333-333322222222222222-33333-55-77--8-8-77-55-222222222222-|
E||000-111111111111--------------------------------------------------------|

[2]
e||-----------------------------------------------------------------|
B||-----------------------------------------------------------------|
G||--------------------222222222222--------------------222222222222-|
D||-222-33333333333333-222222222222-222-33333333333333-222222222222-|
A||-222-33333333333333-000000000000-222-33333333333333-000000000000-|
E||-000-11111111111111--------------000-11111111111111--------------|
[ Tab from: http://www.guitartabs.cc/tabs/t/typecast/assertion_tab_ver_3.html ]
VERSE2:
[1]And affirmation denies everything i need to say...
e||-----------------------------------------------------------------|
B||-----------------------------------------------------------------|
G||-----------------------------------------------------------------|
D||-222-33333333333333-2222222222222h32-33333333333333-222222222222-|
A||-----------------------------------------------------------------|
E||-----------------------------------------------------------------|

[2]
e||-----------------------------------------------------------------|
B||-----------------------------------------------------------------|
G||--------------------222222222222--------------------222222222222-|
D||-222-33333333333333-222222222222-222-33333333333333-222222222222-|
A||-222-33333333333333-000000000000-222-33333333333333-000000000000-|
E||-000-11111111111111--------------000-11111111111111--------------|

[1] & [2] Why can't you feel...
e||------------------------------------------|
B||------------------------------------------|
G||------------------------------------------|
D||-222-333x-3333333x-3333-777x-7777777x-777-|
A||-222-333x-3333333x-3333-777x-7777777x-777-|
E||-000-333x-1111111x-1111-555x-5555555x-555-|

REFRAIN:
[1]					[2]
e||-----------------1-----------|	e||---------------------|
B||----------------1-1----------|	B||---------------------|
G||---------------2---2---------|	G||---------------------|
D||-------2------3------------2-|	D||-------------------2-|
A||-3--5--0--3--3-------3--5--0-|	A||-3--2--3--3--3--2--0-|
E||----------1------------------|	E||----------1----------|

BRIDGE:
[1]
e||-----------------------------------------|
B||-----------------------------------------|
G||--------0------0-------0------0----------|	(6x)
D||------2--22--2--22-2-2--22--2------------|
A||------------------0-0-0---00-0-----------|
E||-00011-1---11-1--------------------------|

[1] Could you even pretend that you want me...
e||-----------------------------------------|
B||-----------------------------------------|
G||--------0------0-------0------0----------|	(3x)
D||------2--22--2--22-2-2--22--2------------|
A||------------------0-0-0---00-0-----------|
E||-00011-1---11-1--------------------------|

[2]
e||-------------------------------------------------------------------------|
B||-------------------------------------------------------------------------|
G||-------------------------------------------------------------------------|
D||------------2--32--2----2--32--2----2--32--2----2--32--2-|
A||----------------------------------------00--0----0--00--0----0---|
E||-000-11--1----1--11--1----1-----------------------------------|

e||------------------------------------------------------------------|
B||------------------------------------------------------------------|
G||------------------------------------------------------------------|	(2x)
D||-----2--32--2----2--32--2----2--32--2----2--32--2-|
A||---------------------------------00--0----0--00--0----0---|
E||-11--1----1--11--1----1-----------------------------------|



OUTRO:
[1] Want me!
e||---------------------------------|
B||---------------------------------|
G||---------------------------------|
D||-33333333333333-7777777777777777-|
A||-33333333333333-7777777777777777-|
E||-11111111111111-5555555555555555-|

e||-------------------------------------------------------------------------------|
B||-------------------------------------------------------------------------------|
G||----------------5555-44444444444444-5555-7777-9999-10101010-12121212-10101010--|
D||-33333333333333----------------------------------------------------------------|
A||-33333333333333-3333-22222222222222-3333-5555-7777--8-8-8-8-10101010--8-8-8-8--|
E||-11111111111111----------------------------------------------------------------|

------------------------------------------------------------------------------------|
------------------------------------------------------------------------------------|
-9999-7777-4444-5555-7777-9999-4444-5555-7777-9999-4444-5555-7777-5555-444444444444-|
------------------------------------------------------------------------------------|
-7777-5555-2222-3333-5555-5555-2222-3333-5555-7777-2222-3333-5555-3333-222222222222-|
------------------------------------------------------------------------------------|

[2]						[1] & [2]
e||---------------------------------|        e||-----------------|
B||---------------------------------|        B||-----------------|
G||---------------------------------|    (4x)    G||-------------|
D||-33333333333333-7777777777777777-|        D||-222-3-----------|
A||-33333333333333-7777777777777777-|        A||-222-3-----------|
E||-11111111111111-5555555555555555-|        E||-000-1-----------|

END