Typecast - Assertion Chords & Tabs

 

Assertion Chords & Tabs

Typecast Chords & Tabs

Version: 1 Type: Tab 0 ratings
1 star 2 stars 3 stars 4 stars 5 stars
comments

Assertion Tab

Title:Assertion
Artist:Typecast
Album:The infatuation is always there
Composer:Melvin Macatiag
Tabbed By:Albert Lactaoen
          Napoleon Rodriguez
Posted by:Edizon Regodon

Tuning:drop D (DADBGe)

Intro:
e---------------------------|
B---------------------------|
G--------0----0----0---0----|
D-------2-2--2-2--2-2-2-----| (2x)
A----------------0---0------|
D-222-3-----3---------------|

Riff1: (strumming not shown)
e------------------|
B-----5-4----------|
G-----0-0----------|
D-2/3-3-2-2/3------|
A-2/3-3-2-2/3------|
D-2/3-----2/3------|

Riff2:
e-------------------|
B-5-7-9-11-9-7-4----|
G-0-0-0-0--0-0-0----|
D-3-5-7-9--7-5-2----|
A-3-5-7-9--7-5-2----|
D-------------------|

Verses: (strumming not shown)
unexplained sight...
e------|
B------|
G------|
D-3-7--| (2x)
A-3-7--|
D-3-7--|

impulsive scene...
e--------|
B--------|
G--------|
D-2-3-7--| (2x)
A-2-3-7--|
D-2-3-7--|

Chorus:
i wonder if i....
e----------|
B-5-7------|
G-0-0------|
D-3-5-7-3--| (2x)
A-3-5-0-0--|
D-----7-3--|

anyway...
(riff 2)

verse 2:
and affirmition denies...
e------|
B------|
G------|
D-3-7--| (2x)
A-3-7--|
D-3-7--|
[ Tab from: http://www.guitartabs.cc/tabs/t/typecast/assertion_tab.html ]
why cant you feel...
e--------|
B--------|
G--------|
D-2-3-7--| (2x)
A-2-3-7--|
D-2-3-7--|

chorus:
Chorus:
i wonder if i....
e----------|
B-5-7------|
G-0-0------|
D-3-5-7-3--| (2x)
A-3-5-0-0--|
D-----7-3--|

anyway..
e---------------------------|
B---------------------------|
G--------0----0----0---0----|
D-------2-2--2-2--2-2-2-----| (2x)
A----------------0---0------|
D-222-3-----3---------------|
continous until..

you want me..
Riff2:
e---------------------------|
B---------5-7-9-11-9-7-4----|
G---------0-0-0-0--0-0-0----|
D-222-333-3-5-7-9--7-5-2----|
A-222-333-3-5-7-9--7-5-2----|
D-222-333-------------------|

       -end-

unexplained sight
whenever you're around
this unfulfilled adjacent
of moment comes around
impulsive scene shivers
over and over again
i wonder if i
could completely present
myself to you
i dont have any brilliant words
to say anyway
and affirmition denies
everything i need to say
take back everything
like nothing's left for me
why cant you feel
the way i'm feeling now?
could you even pretend
that you want me?
---------------------------------------------
theres a lot of corrections
we just try it..
fullcollapse1988@yahoo.com
Comments