Typecast - Another Minute Until Ten Chords & Tabs

 

Another Minute Until Ten Chords & Tabs

Typecast Chords & Tabs

Version: 2 Type: Tab 0 ratings
1 star 2 stars 3 stars 4 stars 5 stars
comments

Another Minute Until Ten Tab

Song: Another Minute Until Ten
Artist: Typecast
Tabbed By: Ino Grana (http://pleasurebox.tk)
Email niyo ako: junkmailhere@smashing-pumpkins.com

Tuning: DADGBe/pwede ring standard convert niyo nalang. 
Kung magaling ka, kahit wala pa sa tono yung gitara mo.

Intro/Bridge:
[Guitar 1]
e |-------5------------5----|
b |----8----8------7-8---8--|
g |------7----7--7--------7-|
d |-------------------------|
a |--7----------------------|
d |-------------------------|
     [Always let the first note ring. Do this two times, then...]
e |-------5------------5----|
b |----8----8------7-8---8--|
g |------7----7--7--------7-|
d |--7----------------------|
a |-------------------------|
d |-------------------------|
     [Two times din `to.]
[Guitar 2]
e |-10------10------12-------10-------|
b |----12------12------12-------12----|
g |-------11------12------12-------11-|
d |-----------------------------------|
a |-----------------------------------|
d |-----------------------------------|
[ Tab from: http://www.guitartabs.cc/tabs/t/typecast/another_minute_until_ten_tab_ver_2.html ]
Chorus Riff:
e |--------------------------------------------------------------------------------------------|
b |---------------------3-3--------------------------------------------------------------------|
g |-----------------------------4-4----------0--0--------2--------------4----------------------|
d |-5*-4*-2----2-2-----------2-------0h2--------------0------------5-5-----5--4----4h5-5-5-5---|
a |-5*-4*-2----2-----------------------------------2----------2-2------------------------------|
d |-5*-4*-2----2-------------------------------------------------------------------------------|
       [*palm mute]     
     [Do this two times, then...]
e |---------------|
b |---------------|
g |---------------|
d |----5*-4*-2----|
a |----5*-4*-2----|
d |----5*-4*-2----|

Transition 1:

e |-------2-2--------2-2--------2-|
b |-------3-3--------3-3--------3-|
g |-------2-2--------2-2--------2-|
d |-2*-2*------2*-2*------2*-2*---|
a |-2*-2*------2*-2*------2*-2*---|
d |-2*-2*------2*-2*------2*-2*---|
     [Listen to song for artificial harmonics and variations... Strumming at effects na rin.]
     [Basta ito yung basic chord niya for E.]

Verse 1:

e |----0-----------------------------------------------|
b |----0---------------------------3-3-------------3-3-|
g |-5--2---4-5-7-5-4-0---------0-0-------------0-0-----|
d |-5--2-----------------2*-2*-----------2*-2*---------|
a |-3--0-----------------------------------------------|
d |----------------------------------------------------|

Pre-chorus:

e |-0----|
b |-0----|
g |-2--5-|
d |-2--5-|
a |-0--3-|
d |------|
     ["Try..."]

Verse 2:

e |----0------------------------------------|
b |----0----------------3-3-------------3-3-|
g |-5--2------------0-0-------------0-0-----|
d |-5--2------2*-2*-----------2*-2*---------|
a |-3--0------------------------------------|
d |-----------------------------------------|

Transition 2:

e |------|
b |------|
g |-5--7-|
d |-5--7-|
a |-3--5-|
d |------|

Ending Chord:

e |-2---|
b |-3---|
g |-2---|
d |-2---|
a |-2---|
d |-2---|

Arrangement:
Intro - 2x
Chorus Riff - 1x
Transition 1 - 6x
Verse 1 - 4x
Pre-chorus - 1x
Transition 1 - 2x
Pre-chorus - 1x
Chorus Riff - 1x
Transition 1 - 6x
Verse 2 - 4x
Pre-chorus - 1x
Transition 1 - 2x
Bridge - 4x
Transition 2 - 1x
Chorus Riff - 1x
End

Suportahan natin ang musikang Pinoy. - http://pleasurebox.tk
Comments