Typecast - 21 And Counting Chords & Tabs

 

21 And Counting Chords & Tabs

Typecast Chords & Tabs

Version: 1 Type: Tab 0 ratings
1 star 2 stars 3 stars 4 stars 5 stars
comments

21 And Counting Tab

21 and counting
typecast
tabbed by: Rey Ian Cabanganan

metal zone na effects at konting konting delay ang ginamit,

intro:
guitar 1

e|----------------------------------------|
B|----------------------------------------|
G|----9-8-----------9~----9-8---11----9~--|
D|---9---9--9/10---9~----9---9--9----9~---|
A|--7-------------7~----7-----------7~----|
E|----------------------------------------|

guitar 2

e|-------------------|pakinggan nyo nalang yung kanta para makuha nyo 
B|--3-----------3----|yung pattern.
G|--5--5--5--5-------|
D|--5-5--5--5--------|
A|--3----------------|
E|-------------------|

tapos eto sunod:
both guitars
e|-----------------------------------------------------------|
B|-----------------------------------------------------------|
G|---------------9-9-9-----8--9p8----------9-9-9-----8--9p8--|
D|--1111111111---------9-9----------77777--------9-9---------|
A|--1111111111----------------------77777--------------------|
E|--9-9-9-9-9-----------------------55555--------------------|
					 two times tong mga to.
e|-------------------------------------|
B|--------------------------12-12------|
G|-------------9-9-9-------------------|
D|--111111111--------9-9-9--------7777-|
A|--111111111---------------------7777-|
E|--9-9-9-9-9---------------------5555-|
[ Tab from: http://www.guitartabs.cc/tabs/t/typecast/21_and_counting_tab.html ]
verse:guitar 1
hindi ako sure dito eh,,hindi ko kc gaano marinig..
e|---------|
B|---------|
G|--9-8-9--|
D|--9-9-9--|
A|--7-7-7--|
E|---------|

guitar 2
e|-------------------|pakinggan nyo nalang yung kanta para makuha nyo 
B|--3-----------3----|yung pattern.
G|--5--5--5--5-------|
D|--5-5--5--5--------|
A|--3----------------|
E|-------------------|

tapos eto sunod.both guitars to.
e|---------------------------------------|
B|---------------------------------------|
G|---------------------------------------|
D|--44444-------------777777-------------|
A|--44444-------------777777-------------|
E|--22222-------------555555-------------|
   so this is.........how the guilt feels

eto ung sa guitar 1
e|----------------------------------|
B|----------------------------------|
G|-9-9-9--11-13--8-8-9-11-9-9-8-4-6-|
D|-x-x-x--x--x---x-x-x-x--x-x-x-x-x-|two times to.
A|-7-7-7--9--11--6-6-7-9--7-7-6-2-4-|
E|----------------------------------|
 tapos intro uli.
 
dito mag tatapos,
e|------------------|
B|------------------|
G|------------------|
D|--7~--------------|
A|--7~--------------|
E|--5~--------------|
yan nah, pa ulit ulit nlng yung ibang parts ng song.


maraming salamat. pakirate nlng po...
pakinggan nlng mabuti yung kanta using tw0 speakers left and right
para mapakinggan yung ghost guitar.

khoital reaction! hi ingrid ko! 
mabuhay ang typecast!
Comments