Type O Negative - Xero Tolerance Chords & Tabs

 

Xero Tolerance Chords & Tabs

Type O Negative Chords & Tabs

Version: 1 Type: Bass Tab 0 ratings
1 star 2 stars 3 stars 4 stars 5 stars
comments

Xero Tolerance Bass Tab

Intro: (or the "Kill you Tonight" Line)
G----------------------------|
D----------------------------|
A-4------4------4------4-5-5-|
E---4-3----4-3----4-3--------|


Verse (or the "Hatred / Anger / Rage" Line)
G--------------------------|
D--------------------------|
A----55----77----55-77-52--|
E-33----33----33-----------|


Verse 2 (or the "Into someone I don't know" Line)
G--------------------------------|
D--------------------------------|
A-3-2-0--2-0----3-2-0--2-0-------|
E------------3-------------3-2---|
[ Tab from: http://www.guitartabs.cc/tabs/t/type_o_negative/xero_tolerance_btab.html ]
Verse 3 (played with Organ after "And now, you DIE")
G---------------------------------|
D---------------------------------|
A-2---0-2-3-0-2---------0-2-4-----|
E---3-----------3-4-0-3-------3---|

Verse 4 (or the "Pickaxe" Line)
G-----------------------------------------------------------|
D-----------------------------------------------------------|
A----55-----55----55-----55----55-----55---------55555555---|
E-55----565----55----565----55----565----55555555-----------|

Verse 5 (or the "Punishment" Line)
G-------------------|
D-------------------|
A-------------------|
E-1-113-1-11113-1---|
Comments