Type O Negative - World Coming Down Chords & Tabs

 

World Coming Down Chords & Tabs

Type O Negative Chords & Tabs

Version: 1 Type: Tab 0 ratings
1 star 2 stars 3 stars 4 stars 5 stars
comments

World Coming Down Tab

   
******************************************************
**          Tabbed by Raza Mahmood                  **
******************************************************

Type O Negative - World Coming Down

Type-O tuning from low to high (B,E,A,D,F#,B)

                              (4 times)
||---------------------------------||
||---------------------------------||
||---------------------------------||
||------6------6-+-(6)-+-(6)-+-(6)-||
||-7--7---7-5----------------------||
||---------------------------------||

           "She thinks I'm Iron man..."
      (-1, full step dip using whammy bar) (4 times)
||-------------------------------||
||-------------------------------||
||-------------------------------||
||-9--(9)--(7)-------------------||
||-7--(7)--(5)-------------------||
||-0------------------/15\-------||

Repeat opening/verse one

CHORUS:
"..I know  that my  world is coming down...
yeah, I know, I know I'm the one who brought it down
brought it down  bring it on down..."
                                         (4 times)
||------------------------------------------------
||-12----12----12----12----12----12----12----12---
||----15----15----15----15----15----15----15----15
||------------------------------------------------
||------------------------------------------------
||------------------------------------------------
----------------------------||
-12----12----12----12----12-||
----15----15----15----15----||
----------------------------||
----------------------------||
----------------------------||
|
|
||------------------------------------------------
||------------------------------------------------
||------------------------------------------------
||-11-----------------11\9------------------9\8---
||-9-------------------9\7------------------7\6---
||------------------------------------------------
----------------------------||
----------------------------||
----------------------------||
-----------8\7--------------||
-----------6\5--------------||
----------------------------||
[ Tab from: http://www.guitartabs.cc/tabs/t/type_o_negative/world_coming_down_tab.html ]
BRIDGE:                                  (2 times)
||------------------------------------------------
||------------------------------------------------
||------6-----4----4-4h6p4---------6--4-4h6p4-----
||----------6---------------------------------6--4
||-4------------------------7-4-------------------
||------------------------------------------------
------------------------------------||
------------------------------------||
------------------------------------||
-(5)-5-(6)-6-(7)-7-(8)-8-(9)-9-(10)-||
------------------------------------||
------------------------------------||

"How quickly pass the days..."
(I think Kenny is playing this part, but it
might be Josh on keys...listen closely)
||---/24----------------(24)\--/19-19--18-18----------------(24)-||
||---------------------------------------------19-19-------------||
||---------------------------------------------------20-20-------||
||---------------------------------------------------------------||
||---------------------------------------------------------------||
||---------------------------------------------------------------||

Repeat bridge

OUTRO:                (fdback)
||-------------------------||
||-------------------------||
||-------------------------||
||-------------------------||
||-6---6---6-----------(6)-||
||-4---4---4-----------(4)-||

"..I know  that my  world is coming down...
yeah, I know, I know I'm the one who brought it down
brought it down  bring it on down..."
                                         (4 times)
||------------------------------------------------
||-12----12----12----12----12----12----12----12---
||----15----15----15----15----15----15----15----15
||------------------------------------------------
||------------------------------------------------
||------------------------------------------------
----------------------------||
-12----12----12----12----12-||
----15----15----15----15----||
----------------------------||
----------------------------||
----------------------------||
|
|
||------------------------------------------------
||------------------------------------------------
||------------------------------------------------
||-11-----------------11\9------------------9\8---
||-9-------------------9\7------------------7\6---
||------------------------------------------------
----------------------------||
----------------------------||
----------------------------||
-----------8\7--------------||
-----------6\5--------------||
----------------------------||

     "Ooh  ah       ooh     ah..."
||----------------------------------||
||----------------------------------||
||----------------------------------||
||-11--11/14-----14\13---13\12--12\-||
||----------------------------------||
||--9---9/12-----12\11---11\10--10\-||
Comments