Type O Negative - Wolf Moon Chords & Tabs

 

Wolf Moon Chords & Tabs

Type O Negative Chords & Tabs

Version: 3 Type: Bass Tab 0 ratings
1 star 2 stars 3 stars 4 stars 5 stars
comments

Wolf Moon Bass Tab

Artist - Type O Negative
Song - "Wolf Moon"
Album - "October Rust"
Words and music written by Peter Steele.
Tabbed by Graham Lapper (gdl_42@yahoo.co.uk)

Checked it as best I can, and it all sounds right. Don't be scared to throw in big
slides here, there and everywhere. That's what Type O tunes are all about!

Standard Tuning 5-string bass (BEADG)

Keyboard intro then:

Intro- 

G|---------|
D|---------|
A|---------|
E|---------|
B|--7h9p7--| once only then:

G|----------------------------------------|
D|----------------------------------------|
A|----------------------------------------|
E|------------------7/--------------------|
B|---2-------7h9-------5-----7h9p7--------|

G|----------------------------------------|
D|----------------------------------------|
A|----------------------------------------|
E|------------------7/--------------------|
B|---2-------7h9-------5------------------| x4

Throw in a big slide over the drum fill!

Riff 1- (Main Theme)

G|----------------------------------------|
D|----------------------------------------|
A|----------------------------------------|
E|-9-9-9-9-9\4-4-4/12-12-12-12-12-\4-4-4--|
B|----------------------------------------| x2

Verse riff-

G|----------------------------------------|
D|----------------------------------------|
A|----------------------------------------|
E|-----------4-4-4--0-0-0-0-0-4-4-4-------|
B|-2-2-2-2-2------------------------------| x4


Pre-chorus-

G|----------------------------------------------------|
D|----------------------------------------------------|
A|----------------------------------------------------|
E|----------------------------------------------------|
B|--2-------2----2----0----5----------5----5--/-7-----|

G|----------------------------------------------------|
D|----------------------------------------------------|
A|----------------------------------------------------|
E|----------------------------------------------------|
B|--2-------2----2----0----5----------5---7---8---9---|
[ Tab from: http://www.guitartabs.cc/tabs/t/type_o_negative/wolf_moon_btab_ver_3.html ]
G|----------------------------------------------------|
D|----------------------------------------------------|
A|----------------------------------------------------|
E|----------------------------------------------------|
B|--2-------2----2----0----5----------5----5--/-7-----|

G|----------------------------------------------------|
D|----------------------------------------------------|
A|----------------------------------------------------|
E|----------------------------------------------------|
B|--2-------2----2----0----5----------5---9---8---7---|


Chorus-

G|--------------------------------------------|
D|--------------------------------------------|
A|--------------------------------------------|
E|----2--------/7-------5--------4/-----------|
B|--------------------------------------------| x2

Riff 1 x2

Verse x4

Chorus x4


Bass interlude-

G|------------------------------------------------------------------|
D|------------------------------------------------------------------|
A|-------7-----7---------2-----2---------9-----9--------11----11----|
E|------------------------------------------------------------------|
B|-5---5---5-5---5-0---0---0-0---0-7---7---7-7---7-9---9---9-9---9--|

G|------------------------------------------------------------------|
D|------------------------------------------------------------------|
A|-------7-----7---------2-----2---------9-----9--------------------|
E|---------------------------------------------------------------7--|
B|-5---5---5-5---5-0---0---0-0---0-7---7---7-7---7--9-------7h9-----|


Keyboard Intro again then:

Intro x2

Pre Chorus

Break with drums/keys/voice only

Chorus x2

Outro- repeat till end

G|------------------------------------------------------------------|
D|------------------------------------------------------------------|
A|------------------------------------------------------------------|
E|------------------------------------------------------------------|
B|--5-5-5-5-5-5-5-5-4-4-4-4-4-4-4-4-7-7-7-7-7-7-7-7-9-9-9-9-9-9-9-9-|
Comments