Type O Negative - Wolf Moon Chords & Tabs

 

Wolf Moon Chords & Tabs

Type O Negative Chords & Tabs

Version: 2 Type: Bass Tab 0 ratings
1 star 2 stars 3 stars 4 stars 5 stars
comments

Wolf Moon Bass Tab

 
<<<<<<<<>>>>>>>>>>>
Song - "Wolf Moon"
Artist - Type O Negative
Album - "October Rust"
Words and music written by Peter Steele.  

	Okay this is a killer song from, in my opinion, Type O's best release to date.  It's not too hard to play ..... but the timing has got to be perfect, so listen closely to the album or you'll end up making a mess of a great song.

Standard Tuning (GDAE)

intro-
g|--------------------------------------------
d|--------------------------------------------
a|------------------7/------------------------
e|--/2-------7h9-------5-----7/9\7-----------
this part comes in under the keyboard intro

Riff 1-
g|--------------------------------------------
d|--------------------------------------------
a|--------------------------------------------
e|---/99999\444/1212121212\444----------
this is the kickass riff that comes in just after the intro and before the verse. by the way ... those are 12 as in twelves not 1 2 1 2

verse riff-
g|--------------------------------------------
d|--------------------------------------------
a|--------------------------------------------
e|---44444-666-00000-444-----------------
[ Tab from: http://www.guitartabs.cc/tabs/t/type_o_negative/wolf_moon_btab_ver_2.html ]
prechorus-   
g|------------------------------------------------------------------------------------------------------------
d|------------------------------------------------------------------------------------------------------------
a|------------------------------------------------------------------------------------------------------------
e|--2--2-2--0-5--|-5--5/7--|---2--2-2--0-5-|-5-7-8-9|--2--2-2---0-5-|-5--5/7--|--2--2-2--0-5--|-5-9-8-7
this is played when the lyrics go "unholy water .... sanguine addiction"

chorus-
g|--------------------------------------------
d|--------------------------------------------
a|--------------------------------------------
e|---2--------/7-------5--------4------------
"hey wolf moon .... come cast your spell on me"

bass interlude-
g|----------------------------------------------------------------------------
d|---------7--------7---------2------2--------9------9----------11-----------
a|-------------------------------------------------------------------------7---
e|---5--5----5--5----5-0--0---0--0---0-7-7---7--7---7--9--9------7h9-----

bridge-
g|----------------------------------------------------------------------
d|----------------------------------------------------------------------
a|----------------------------------------------------------------------
e|--5555555---44444444---77777777---999999999-----------------
"beware ..... the woods at night .... beware ... the lunar light ..... "

Okay those are all the riffs in the song.  Listen to the song to figure out exactly when to play then and get the beat down.

This was a Liam Lince tab.  Any accolades or complaints should be promptly emailed to wessex@dp.net
Comments