Type O Negative - Who Will Save The Sane Chords & Tabs

 

Who Will Save The Sane Chords & Tabs

Type O Negative Chords & Tabs

Version: 1 Type: Tab 0 ratings
1 star 2 stars 3 stars 4 stars 5 stars
comments

Who Will Save The Sane Tab

   
Type O Negative - Who Will Save The Sane
Tabbed by Raza Mahmood
Type-O tuning from low to high (B,E,A,D,F#,B)

||-------------|----------||
||-------------|----------||
||-(7)\--(9)\--|--------7-||
||-(7)\--(9)\--|--------9-||
||-------------|--------7-||
||-------------|--/12\--7-||

"Periodic         tableware"
"Pseudotropic   sciencefare"
||---------------------------|----------------------------------------||
||---------------------------|----------------------------------------||
||---------------------------|-7----7-7--7----7-7--7----7-7--7----7-7-||
||-----------------------7-9-|-7----7-7--9----9-9--7----7-7--9----9-9-||
||---9-8-7---------9-8-7-----|-9----9-9--7----7-7--9----9-9--7----7-7-||
||-7-------10-9--7-----------|-7--X-7-7--7--X-7-7--7--X-7-7--7--X-7-7-||

"But who will save the sane?"      (2times)
||---------------------------------||
||---------------------------------||
||---------------------------------||
||-7---6---9---------7-9-7-7h9p7-6-||
||-5---4---7-----7^9---------------||
||---------0---7-------------------||

"Now crawl on by..."                                    (2nd time only)
||---------------------------------------------------||---||
||---------------------------------------------------||---||
||---------------------------------------------------||-7-||
||-7--7--5--4--7-7-------------------------------7-9-||-9-||
||-5--4--3--2--5-4------2-/9-8-7--/5-4--2-/9-8-7-----||-7-||
||-----------------/15\------------------------------||-7-||

REPEAT VERSE

Breakdown Riff:                   (3 times)
||----------------------------------||
||----------------------------------||
||----------------------------------||
||----------------------------------||
||---2-----2-----2-4---2-4---1+-(0)-||
||-4---4-3---3-2-----1-----0--------||
[ Tab from: http://www.guitartabs.cc/tabs/t/type_o_negative/who_will_save_the_sane_tab.html ]
"Physical laws..."                      (4times)
||-------------------------------------------||
||-------------------------------------------||
||-------------------6------4----------------||
||-6-------------------6------4----8-9---8-9-||
||-4---6----4--2---4------6-----/9-----7-----||
||-----4----2--0-----------------------------||

                                 (2times)
||----------------------------------||
||----------------------------------||
||----------------------------------||
||----------------------------------||
||---2-----2-----2-4---2-4---1+-(0)-||
||-4---4-3---3-2-----1-----0--------||


"Tentative ambulance..."                (4times)
||-------------------------------------------||
||-------------------------------------------||
||-------------------6------4----------------||
||-6-------------------6------4----8-9---8-9-||
||-4---6----4--2---4------6-----/9-----7-----||
||-----4----2--0-----------------------------||

     (4times, slow tempo 3rd, 4th time)
||----------------------------------||
||----------------------------------||
||----------------------------------||
||----------------------------------||
||---2-----2-----2-4---2-4---1+-(0)-||
||-4---4-3---3-2-----1-----0--------||

"But who will save the sane?"      (2times)
||---------------------------------||
||---------------------------------||
||---------------------------------||
||-7---6---9---------7-9-7-7h9p7-6-||
||-5---4---7-----7^9---------------||
||---------0---7-------------------||

"Now crawl on by..."
||---------------------------------------------------||
||---------------------------------------------------||
||---------------------------------------------------||
||-7--7--5--4--7-7-------------------------------7-9-||
||-5--4--3--2--5-4------2-/9-8-7--/5-4--2-/9-8-7-----||
||-----------------/15\------------------------------||

GUITAR SOLO:
(rhythm fig)
||-------------||
||-------------||
||-------------||
||-------------||
||-4-------7-6-||
||-2-------5-4-||
Comments