Type O Negative - White Slavery Chords & Tabs

 

White Slavery Chords & Tabs

Type O Negative Chords & Tabs

Version: 1 Type: Tab 0 ratings
1 star 2 stars 3 stars 4 stars 5 stars
comments

White Slavery Tab

   
Type O Negative - White Slavery
Tabbed by Raza Mahmood
Type-O tuning from low to high (B,E,A,D,F#,B) += 1/2 step pulloff


(After key/drums intro)
||-----------------------------------------------||
||-----------------------------------------------||
||-----------------------------------------------||
||-----------------------------------------------||
||----------5+-(5)----4+-(4)------2-1-----1+-(1)-||
||-5+-\(4)---------/4---------/4--------2--------||


                                                         pm..........|
||--------------------------------------------------------------------||
||--------------------------------------------------------------------||
||---------6---------------6----------------6-------------------------||
||-------6---6-----------6---6------------6---6--------4--4-4-4-4-4-4-||
||-4------------4-4-6------------6-6-0-------------0-0-2--2-2-2-2-2-2-||
||--------------------------------------------------------------------||

                                  (2times)
||-----------------------------------------------||
||-----------------------------------------------||
||-----------------------------------------------||
||-----------------------------------------------||
||----------5+-(5)----4+-(4)------2-1-----1+-(1)-||
||-5+-\(4)---------/4---------/4--------2--------||


                                                        pm...........|
||--------------------------------------------------------------------||
||--------------------------------------------------------------------||
||---------6---------------6----------------6-------------------------||
||-------6---6-----------6---6------------6---6--------4--4-4-4-4-4-4-||
||-4------------4-4-6------------6-6-0-------------0-0-2--2-2-2-2-2-2-||
||--------------------------------------------------------------------||CHORUS:

||--------------------------------------------------------------||
||--------------------------------------------------------------||
||---------11---------------11--------------11-----------11-----||
||------11----11---------11----11---------9----9-------9----11--||
||--9--------------9-8--------------8-7-------------6-----------||
||--------------------------------------------------------------||

[ Tab from: http://www.guitartabs.cc/tabs/t/type_o_negative/white_slavery_tab.html ]
||--------------------------------------------------------------||
||--------------------------------------------------------------||
||---------13---------------13--------------11-----------11-----||
||------11----11---------11----11---------9----9-------9----11--||
||--9--------------9-8--------------8-7-------------6-----------||
||--------------------------------------------------------------||


                                      pm...........................|
||------------------------------------------------------------------||
||------------------------------------------------------------------||
||---------11---------------11--------------------------------------||
||------11----11---------11----11-----9-9-9-9-9-9-9-9-8-8-8-8-8-8-8-||
||--9--------------9-8--------------8-7-7-7-7-7-7-7-7-6-6-6-6-6-6-6-||
||------------------------------------------------------------------||

SOLO:  2times                                pm...........|
||----------------------------------------------------------||
||----------------------------------------------------------||
||----------------------------------------------------------||(Rhythm
||-6--------6/8--8-8\-2-----2-2-4-4-4-4-4-4-4---------------||  fig)
||-4--------4/6--6-6\-0-----0-0-2-2-2-2-2-2-2---------------||
||----------------------------------------------------------||

||----------------------------------------------------------||
||-12++--(14)-12--------------------------------------------||
||----------------------------------------------------------||(Solo)
||------------------/14---14-14-13---13-13-11---9-11---(11)-||
||----------------------------------------------------------||
||----------------------------------------------------------||Repeat Chorus


OUTRO: 
||--------------------------------------------------------||
||--------------------------------------------------------||
||--------------------------------------------------------||
||-13----\8----8-10-11----------8^9^(8)--8^9^(8)--8^9^(8)-||
||-11----\6----6--8--9---/16\-----------------------------||
||--------------------------------------------------------||

||--------------------------------------------------------||
||--------------------------------------------------------||
||--------------------------------------------------------||
||--------------------------------------------------------||
||-/13-/12-/11-/10-/9-/8-/7-/6-/5-/4-/3-/2----------------||
||-----------------------------------------/6-/5-/4-/3--0-||
Comments