Type O Negative - Summer Breeze Chords & Tabs

 

Summer Breeze Chords & Tabs

Type O Negative Chords & Tabs

Version: 2 Type: Tab 0 ratings
1 star 2 stars 3 stars 4 stars 5 stars
comments

Summer Breeze Tab

   
TYPE O NEGATIVE  SUMMER BREEZE             
                    
 Tune down 2 1/2 steps

    6=B    3=D
    5=E    2=F#        
    4=A    1=B          

Slow Heavy Rock 68bpm

E----------------------------------------------------------------------------
B----------------------------------------------------------------------------
G----------------------------------------------------------------------------
D-------------5-----2-------------------------------------------------------- 
A--0----3--------------------5----3------2-3h-p2--0-------------------------- E-------------------------------------------------------3--4--5-----3--4--5--

                                                                                 
E-----------------------------------------------------------------------------  B----------------------------------------------------------------------------- 
G----------------------------------------------------------------------------- 
D-------------5-----2-------------------------------------------------------5- 
A--0----3-----------------5----3------2-3h-p2--0----------------------------3- 
E----------------------------------------------------3--4--5-----5--4--3------ 


1st, 2nd, 3rd Verses

       
E---------------------------------------------------------------------- 
B---------------------------------------------------------------------- 
G--------------------------------------7----7-------------------------- 
D-------2-----2-------5----5-----------5----5-------7---7-------------- 
A-------0-----0-------3----3------------------------5---5-------------- 
E---------------------------------------------------------------------- 





     
E--------------------------------------------------------------------
B--------------------------------------------------------------------
G--------------------------------------------------------------------
D-----2----5-------------------7---8------2---2------5---5-----------
A-----0----3-------------------5---6------0---0------3---3-----------
E----------------0---0---0-------------------------------------------
                PM........




                                          
E--------------------------------------------------------------------------------
B--------------------------------------------------------------------------------
G--------------------------------------------------------------------------------
D--12-------12--------7-----7-------2-----------14--(14)\----------------12--14\-
A--10-------10--------5-----5-------0-----------12--(12)\----------------10--12\-
E------------------------------------------0------------------0---0---0----------
                                          PM        sl.      PM.........      sl.


CHORUS
         
E----------------------------------------------------------------------------
B----------------------------------------------------------------------------
G----------------------------------------------------------------------------
D--7----7------7--7--7-------------------9------9--9--9--9-------------------
A--5----5------5--5--5----5--4--5--6-----7------7--7--7--7----7--6--5--------
E----------------------------------------------------------------------7-----
       PM.............                          PM........



                  
E--------------------------------------------------------------------------------
B--------------------------------------------------------------------------------
G--------------------------------------------------------------------------------
D---5------5--------------------5----7------3--------------------2---X---2-------
A---3------3--------------------3----5------5--------------------0---X---0-----X-
E------------------0-----0------------------------0------0-----------------------
                   PM.....                        PM......




                                                                 
E--------------------------------------------------------------------------------
B--------------------------------------------------------------------------------
G----9----X----9-------7-----7/9-------------------------------------------------
D----7----X----7-------5-----5/7----5-7h-p5-------7---7-----7--7--7--------------
A----0---------0----------------------------7-----5---5-----5--5--5---5--4--5--6-
E--------------------------------------------------------------------------------
                             sl.                  Pm...............


[ Tab from: http://www.guitartabs.cc/tabs/t/type_o_negative/summer_breeze_tab_ver_2.html ]
   
E-----------------------------------------------------------------------------------
B-----------------------------------------------------------------------------------
G-----------------------------------------------------------------------------------
D---9----9---9---9---9-----------------5----5----------------5---7-----7------------
A---7----7---7---7---7---7--6--5-------3----3----------------3---5-----5------------
E---------------------------------7---------------0----0---------------------0---0--
         PM...........                            PM.....                    PM....
                                                                          


 
E-------------------------------------------------------------------------------------
B-------------------------------------------------------------------------------------
G---------------------------------------7----X-----7----------------------------------
D--2---------X--------2-----------------9----X-----9-------5-----5/7------------------ A--0---------X--------0---------X-------0----------0-------3-----3/5-----3-5h-p3------
E---------------------------------------------------------------------------------5---
                                                                  sl.



  
E------------------------------------------------------------------------------------- 
B------------------------------------------------------------------------------------- 
G------------------------------------------------------------------------------------- 
D--2--10------------14--(14)\5----7----7b--X----2-----10--------14--(14)\5--7---7b--X- 
A--0---8------------12--(12)\3----5----5b--X----0--7---8--------12--(12)\3--5---5b--X- 
E-----------0--0-----------------------------------0------0--0------------------------ 
            PM..           sl.         1/2         PM     PM..                  1/2 ps 




         spoken (When I come home...)
E---------------------------------------------------------------------
B---------------------------------------------------------------------
G---------------------------------------------------------------------
D---------------------------------------------------------------------
A----5---5---5---5---5---5---5---5---5---5---5---5---5---5---5---5----
E----3---3---3---3---3---3---3---3---3---3---3---3---3---3---3---3----
   PM..............................................................



       from a hard days    work,                   and your waiting there
E----------------------------------------------------------------------------------
B----------------------------------------------------------------------------------
G----------------------------------------------------------------------------------
D----------------------------------------------------------------------------------
A---7-7-7-7-7---7-7-7-7-7-7-7-7-7-7-7-----5-5-5-5-5-5----5-5-5---5---5-5-5-5-5-5---
E---5-5-5-5-5---5-5-5-5-5-5-5-5-5-5-5-----3-3-3-3-3-3----3-3-3---3---3-3-3-3-3-3---
  PM..............................................................................




       I dont have a care,             a care in this world
E----------------------------------------------------------------------------------
B----------------------------------------------------------------------------------
G----------------------------------------------------------------------------------
D-----------------------------------------------------------2--2---0----0--2-------
A---7-7-7-7-7-7-7-7-7-7-7-7-7-7-7-7------2-2-2-2-2-2-2-2-2-------2----2------------
E---5-5-5-5-5-5-5-5-5-5-5-5-5-5-5-5------0-0-0-0-0-0-0-0-0-------------------------
   PM.....................................................



 
  (spoken)    Sum - mer      breeze                  makes me feel fine        
E---------------------------------------------------------------------------------
B---------------------------------------------------------------------------------
G---------------------------------------------------------------------------------
D----7------------------------------------------------9----------------X\---------
A----5-----------------------5----4----5----6---------7----------------X\---------
E---------------------------------------------------------------------------------
                                                                       ps.


   blow - in'        through the  jas - mine      in my mind
E---------------------------------------------------------------------------------
B---------------------------------------------------------------------------------
G---------------------------------------------------------------------------------
D-----5------------------------5/7-------------------X\-------2-------------------
A-----3------------------------3/5-------------------X\-------0-------------------
E---------------------------------------------------------------------------------
                                sl.                  ps.


lyrics:

See the curtains hanging in the window, 
Evening on a friday night,
A little light a shining in the window,
Lets me know everything's alright.

Summer breeze makes me feel fine, blowing thru the jasmine in my mind


See the paper lyin' on the sidewalk,
Music from the house next door
So I walk up on to the doorstep,
Thru the screen and across the floor (Chorus)

See the smile waiting in the kitchen,
foods cookin' and there's plates for two
Feel your arms reach out to hold me
In the evening when the day is thru  (Chorus)





Comments