Type O Negative - Summer Breeze Chords & Tabs

 

Summer Breeze Chords & Tabs

Type O Negative Chords & Tabs

Version: 1 Type: Tab 0 ratings
1 star 2 stars 3 stars 4 stars 5 stars
comments

Summer Breeze Tab

   
D.B
Standard Tuning

Heavy Distortion
(Start first with a massive pick scrape)
-------------------------------------------------------
-------------------------------------------------------
-------------------------------------------------------
-------------------------------------------------------
---------5--2---0--------------------------------------
-2---5--------------5---4h5p4---2---0--1--2--0--1--2---

[ Tab from: http://www.guitartabs.cc/tabs/t/type_o_negative/summer_breeze_tab.html ]
----------------------------------------------------------
----------------------------------------------------------
----------------------------------------------------------
----------------------------------------------------------
---------5--2---0-----------------------------------------
-2---5--------------5---4h5p4---2---0--1--2----2--1--0--5-


That's the main riff and it appears a couple of more times,
through out the rest of the song.

You need tons of distortion, I've never heard another band
use so much distortion.
Comments